  0
SECTION
  2
HEADER
  9
$ACADVER
  1
AC1024
  9
$ACADMAINTVER
 70
     6
  9
$DWGCODEPAGE
  3
ANSI_1252
  9
$LASTSAVEDBY
  1
Stratmann
  9
$INSBASE
 10
0.0
 20
0.0
 30
0.0
  9
$EXTMIN
 10
9427.765835376718
 20
7921.216369714904
 30
-0.0015258207003583
  9
$EXTMAX
 10
9793.552194001695
 20
8280.359928444079
 30
0.0000000349246037
  9
$LIMMIN
 10
0.0
 20
0.0
  9
$LIMMAX
 10
420.0
 20
297.0
  9
$ORTHOMODE
 70
     0
  9
$REGENMODE
 70
     1
  9
$FILLMODE
 70
     1
  9
$QTEXTMODE
 70
     0
  9
$MIRRTEXT
 70
     1
  9
$LTSCALE
 40
4.0
  9
$ATTMODE
 70
     1
  9
$TEXTSIZE
 40
2.5
  9
$TRACEWID
 40
1.0
  9
$TEXTSTYLE
  7
arial
  9
$CLAYER
  8
bemaßung
  9
$CELTYPE
  6
ByLayer
  9
$CECOLOR
 62
   256
  9
$CELTSCALE
 40
1.0
  9
$DISPSILH
 70
     0
  9
$DIMSCALE
 40
1.0
  9
$DIMASZ
 40
55.0
  9
$DIMEXO
 40
7.0
  9
$DIMDLI
 40
1.0
  9
$DIMRND
 40
0.0
  9
$DIMDLE
 40
0.0
  9
$DIMEXE
 40
7.0
  9
$DIMTP
 40
0.0
  9
$DIMTM
 40
0.0
  9
$DIMTXT
 40
35.0
  9
$DIMCEN
 40
0.0
  9
$DIMTSZ
 40
0.0
  9
$DIMTOL
 70
     0
  9
$DIMLIM
 70
     0
  9
$DIMTIH
 70
     0
  9
$DIMTOH
 70
     0
  9
$DIMSE1
 70
     0
  9
$DIMSE2
 70
     0
  9
$DIMTAD
 70
     1
  9
$DIMZIN
 70
     8
  9
$DIMBLK
  1

  9
$DIMASO
 70
     1
  9
$DIMSHO
 70
     1
  9
$DIMPOST
  1

  9
$DIMAPOST
  1

  9
$DIMALT
 70
     0
  9
$DIMALTD
 70
     3
  9
$DIMALTF
 40
0.03937007874016
  9
$DIMLFAC
 40
1.0
  9
$DIMTOFL
 70
     1
  9
$DIMTVP
 40
0.0
  9
$DIMTIX
 70
     0
  9
$DIMSOXD
 70
     0
  9
$DIMSAH
 70
     0
  9
$DIMBLK1
  1

  9
$DIMBLK2
  1

  9
$DIMSTYLE
  2
ISO-25
  9
$DIMCLRD
 70
   256
  9
$DIMCLRE
 70
   256
  9
$DIMCLRT
 70
     7
  9
$DIMTFAC
 40
1.0
  9
$DIMGAP
 40
10.0
  9
$DIMJUST
 70
     0
  9
$DIMSD1
 70
     0
  9
$DIMSD2
 70
     0
  9
$DIMTOLJ
 70
     0
  9
$DIMTZIN
 70
     8
  9
$DIMALTZ
 70
     0
  9
$DIMALTTZ
 70
     0
  9
$DIMUPT
 70
     0
  9
$DIMDEC
 70
     0
  9
$DIMTDEC
 70
     0
  9
$DIMALTU
 70
     2
  9
$DIMALTTD
 70
     3
  9
$DIMTXSTY
  7
arial
  9
$DIMAUNIT
 70
     0
  9
$DIMADEC
 70
     0
  9
$DIMALTRND
 40
0.0
  9
$DIMAZIN
 70
     0
  9
$DIMDSEP
 70
    44
  9
$DIMATFIT
 70
     3
  9
$DIMFRAC
 70
     0
  9
$DIMLDRBLK
  1

  9
$DIMLUNIT
 70
     2
  9
$DIMLWD
 70
    -1
  9
$DIMLWE
 70
    -1
  9
$DIMTMOVE
 70
     0
  9
$DIMFXL
 40
1.0
  9
$DIMFXLON
 70
     0
  9
$DIMJOGANG
 40
0.7853981633974483
  9
$DIMTFILL
 70
     0
  9
$DIMTFILLCLR
 70
     0
  9
$DIMARCSYM
 70
     0
  9
$DIMLTYPE
  6

  9
$DIMLTEX1
  6

  9
$DIMLTEX2
  6

  9
$DIMTXTDIRECTION
 70
     0
  9
$LUNITS
 70
     2
  9
$LUPREC
 70
     4
  9
$SKETCHINC
 40
1.0
  9
$FILLETRAD
 40
5.0
  9
$AUNITS
 70
     0
  9
$AUPREC
 70
     0
  9
$MENU
  1
.
  9
$ELEVATION
 40
0.0
  9
$PELEVATION
 40
0.0
  9
$THICKNESS
 40
0.0
  9
$LIMCHECK
 70
     0
  9
$CHAMFERA
 40
10.0
  9
$CHAMFERB
 40
10.0
  9
$CHAMFERC
 40
20.0
  9
$CHAMFERD
 40
0.0
  9
$SKPOLY
 70
     0
  9
$TDCREATE
 40
2452837.563279977
  9
$TDUCREATE
 40
2452837.52161331
  9
$TDUPDATE
 40
2460292.587833715
  9
$TDUUPDATE
 40
2460292.546167049
  9
$TDINDWG
 40
3.7488647454
  9
$TDUSRTIMER
 40
3.7488647454
  9
$USRTIMER
 70
     1
  9
$ANGBASE
 50
0.0
  9
$ANGDIR
 70
     0
  9
$PDMODE
 70
     0
  9
$PDSIZE
 40
0.0
  9
$PLINEWID
 40
0.0
  9
$SPLFRAME
 70
     0
  9
$SPLINETYPE
 70
     6
  9
$SPLINESEGS
 70
     8
  9
$HANDSEED
  5
1015782
  9
$SURFTAB1
 70
     6
  9
$SURFTAB2
 70
     6
  9
$SURFTYPE
 70
     6
  9
$SURFU
 70
     6
  9
$SURFV
 70
     6
  9
$UCSBASE
  2

  9
$UCSNAME
  2

  9
$UCSORG
 10
0.0
 20
0.0
 30
0.0
  9
$UCSXDIR
 10
1.0
 20
0.0
 30
0.0
  9
$UCSYDIR
 10
0.0
 20
1.0
 30
0.0
  9
$UCSORTHOREF
  2

  9
$UCSORTHOVIEW
 70
     0
  9
$UCSORGTOP
 10
0.0
 20
0.0
 30
0.0
  9
$UCSORGBOTTOM
 10
0.0
 20
0.0
 30
0.0
  9
$UCSORGLEFT
 10
0.0
 20
0.0
 30
0.0
  9
$UCSORGRIGHT
 10
0.0
 20
0.0
 30
0.0
  9
$UCSORGFRONT
 10
0.0
 20
0.0
 30
0.0
  9
$UCSORGBACK
 10
0.0
 20
0.0
 30
0.0
  9
$PUCSBASE
  2

  9
$PUCSNAME
  2

  9
$PUCSORG
 10
0.0
 20
0.0
 30
0.0
  9
$PUCSXDIR
 10
1.0
 20
0.0
 30
0.0
  9
$PUCSYDIR
 10
0.0
 20
1.0
 30
0.0
  9
$PUCSORTHOREF
  2

  9
$PUCSORTHOVIEW
 70
     0
  9
$PUCSORGTOP
 10
0.0
 20
0.0
 30
0.0
  9
$PUCSORGBOTTOM
 10
0.0
 20
0.0
 30
0.0
  9
$PUCSORGLEFT
 10
0.0
 20
0.0
 30
0.0
  9
$PUCSORGRIGHT
 10
0.0
 20
0.0
 30
0.0
  9
$PUCSORGFRONT
 10
0.0
 20
0.0
 30
0.0
  9
$PUCSORGBACK
 10
0.0
 20
0.0
 30
0.0
  9
$USERI1
 70
     0
  9
$USERI2
 70
     0
  9
$USERI3
 70
     0
  9
$USERI4
 70
     0
  9
$USERI5
 70
     0
  9
$USERR1
 40
0.0
  9
$USERR2
 40
0.0
  9
$USERR3
 40
0.0
  9
$USERR4
 40
0.0
  9
$USERR5
 40
0.0
  9
$WORLDVIEW
 70
     1
  9
$SHADEDGE
 70
     3
  9
$SHADEDIF
 70
    70
  9
$TILEMODE
 70
     1
  9
$MAXACTVP
 70
    64
  9
$PINSBASE
 10
0.0
 20
0.0
 30
0.0
  9
$PLIMCHECK
 70
     0
  9
$PEXTMIN
 10
1.000000000000000E+20
 20
1.000000000000000E+20
 30
1.000000000000000E+20
  9
$PEXTMAX
 10
-1.000000000000000E+20
 20
-1.000000000000000E+20
 30
-1.000000000000000E+20
  9
$PLIMMIN
 10
0.0
 20
0.0
  9
$PLIMMAX
 10
420.0
 20
297.0
  9
$UNITMODE
 70
     0
  9
$VISRETAIN
 70
     1
  9
$PLINEGEN
 70
     0
  9
$PSLTSCALE
 70
     1
  9
$TREEDEPTH
 70
  3020
  9
$CMLSTYLE
  2
Standard
  9
$CMLJUST
 70
     0
  9
$CMLSCALE
 40
20.0
  9
$PROXYGRAPHICS
 70
     1
  9
$MEASUREMENT
 70
     0
  9
$CELWEIGHT
370
    -1
  9
$ENDCAPS
280
     0
  9
$JOINSTYLE
280
     0
  9
$LWDISPLAY
290
     0
  9
$INSUNITS
 70
     4
  9
$HYPERLINKBASE
  1

  9
$STYLESHEET
  1
monochrome.stb
  9
$XEDIT
290
     1
  9
$CEPSNTYPE
380
     0
  9
$PSTYLEMODE
290
     0
  9
$FINGERPRINTGUID
  2
{64EB72BB-9F7C-11D4-826E-0001020865AF}
  9
$VERSIONGUID
  2
{B80E2B4C-8B16-2945-8C99-256245A68441}
  9
$EXTNAMES
290
     1
  9
$PSVPSCALE
 40
0.0
  9
$OLESTARTUP
290
     0
  9
$SORTENTS
280
   112
  9
$INDEXCTL
280
     0
  9
$HIDETEXT
280
     0
  9
$XCLIPFRAME
280
     0
  9
$HALOGAP
280
     0
  9
$OBSCOLOR
 70
   257
  9
$OBSLTYPE
280
     0
  9
$INTERSECTIONDISPLAY
280
     0
  9
$INTERSECTIONCOLOR
 70
   257
  9
$DIMASSOC
280
     1
  9
$PROJECTNAME
  1

  9
$CAMERADISPLAY
290
     0
  9
$LENSLENGTH
 40
50.0
  9
$CAMERAHEIGHT
 40
0.0
  9
$STEPSPERSEC
 40
2.0
  9
$STEPSIZE
 40
6.0
  9
$3DDWFPREC
 40
2.0
  9
$PSOLWIDTH
 40
0.25
  9
$PSOLHEIGHT
 40
4.0
  9
$LOFTANG1
 40
1.570796326794897
  9
$LOFTANG2
 40
1.570796326794897
  9
$LOFTMAG1
 40
0.0
  9
$LOFTMAG2
 40
0.0
  9
$LOFTPARAM
 70
     7
  9
$LOFTNORMALS
280
     1
  9
$LATITUDE
 40
37.795
  9
$LONGITUDE
 40
-122.394
  9
$NORTHDIRECTION
 40
0.0
  9
$TIMEZONE
 70
 -8000
  9
$LIGHTGLYPHDISPLAY
280
     1
  9
$TILEMODELIGHTSYNCH
280
     1
  9
$CMATERIAL
347
37C2
  9
$SOLIDHIST
280
     1
  9
$SHOWHIST
280
     1
  9
$DWFFRAME
280
     2
  9
$DGNFRAME
280
     0
  9
$REALWORLDSCALE
290
     1
  9
$INTERFERECOLOR
 62
     1
  9
$INTERFEREOBJVS
345
37CF
  9
$INTERFEREVPVS
346
37CC
  9
$CSHADOW
280
     0
  9
$SHADOWPLANELOCATION
 40
0.0
  0
ENDSEC
  0
SECTION
  2
CLASSES
  0
CLASS
  1
ACDBDICTIONARYWDFLT
  2
AcDbDictionaryWithDefault
  3
ObjectDBX Classes
 90
        0
 91
        3
280
     0
281
     0
  0
CLASS
  1
ACDBPLACEHOLDER
  2
AcDbPlaceHolder
  3
ObjectDBX Classes
 90
        0
 91
        1
280
     0
281
     0
  0
CLASS
  1
LAYOUT
  2
AcDbLayout
  3
ObjectDBX Classes
 90
        0
 91
        1
280
     0
281
     0
  0
CLASS
  1
DICTIONARYVAR
  2
AcDbDictionaryVar
  3
ObjectDBX Classes
 90
        0
 91
        3
280
     0
281
     0
  0
CLASS
  1
SORTENTSTABLE
  2
AcDbSortentsTable
  3
ObjectDBX Classes
 90
        0
 91
        3
280
     0
281
     0
  0
CLASS
  1
MATERIAL
  2
AcDbMaterial
  3
ObjectDBX Classes
 90
     1153
 91
        3
280
     0
281
     0
  0
CLASS
  1
VISUALSTYLE
  2
AcDbVisualStyle
  3
ObjectDBX Classes
 90
     4095
 91
        3
280
     0
281
     0
  0
CLASS
  1
TABLESTYLE
  2
AcDbTableStyle
  3
ObjectDBX Classes
 90
     4095
 91
        3
280
     0
281
     0
  0
CLASS
  1
SCALE
  2
AcDbScale
  3
ObjectDBX Classes
 90
     1153
 91
        3
280
     0
281
     0
  0
CLASS
  1
MLEADERSTYLE
  2
AcDbMLeaderStyle
  3
ACDB_MLEADERSTYLE_CLASS
 90
     4095
 91
        3
280
     0
281
     0
  0
CLASS
  1
AEC_REFEDIT_STATUS_TRACKER
  2
AecDbRefEditStatusTracker
  3
AecArchBase70|Product Desc: Autodesk Architectural Desktop 2007 |Company: Autodesk,Inc. |WEB Address: www.autodesk.com
 90
      129
 91
        1
280
     1
281
     0
  0
CLASS
  1
NPOCOLLECTION
  2
AcDbImpNonPersistentObjectsCollection
  3
ObjectDBX Classes
 90
     1153
 91
        1
280
     1
281
     0
  0
CLASS
  1
CELLSTYLEMAP
  2
AcDbCellStyleMap
  3
ObjectDBX Classes
 90
     1152
 91
        3
280
     0
281
     0
  0
CLASS
  1
ACDBSECTIONVIEWSTYLE
  2
AcDbSectionViewStyle
  3
ObjectDBX Classes
 90
     1025
 91
        3
280
     0
281
     0
  0
CLASS
  1
ACDBDETAILVIEWSTYLE
  2
AcDbDetailViewStyle
  3
ObjectDBX Classes
 90
     1025
 91
        3
280
     0
281
     0
  0
ENDSEC
  0
SECTION
  2
TABLES
  0
TABLE
  2
VPORT
  5
8
330
0
100
AcDbSymbolTable
 70
     1
  0
VPORT
  5
37BF
330
8
100
AcDbSymbolTableRecord
100
AcDbViewportTableRecord
  2
*Active
 70
     0
 10
0.0
 20
0.0
 11
1.0
 21
1.0
 12
9610.659014689207
 22
8100.788149079492
 13
0.0
 23
0.0
 14
10.0
 24
10.0
 15
10.0
 25
10.0
 16
0.0
 26
0.0
 36
1.0
 17
0.0
 27
0.0
 37
0.0
 40
361.7523497126786
 41
2.281212121212121
 42
50.0
 43
0.0
 44
0.0
 50
0.0
 51
0.0
 71
     0
 72
   100
 73
     1
 74
     3
 75
     0
 76
     0
 77
     0
 78
     0
281
     0
 65
     1
110
0.0
120
0.0
130
0.0
111
1.0
121
0.0
131
0.0
112
0.0
122
1.0
132
0.0
 79
     0
146
0.0
348
37CB
 60
     3
 61
     5
292
     1
282
     1
141
0.0
142
0.0
 63
   250
421
  3355443
1001
ACAD_NAV_VCDISPLAY
1070
     3
  0
ENDTAB
  0
TABLE
  2
LTYPE
  5
5
330
0
100
AcDbSymbolTable
 70
     6
  0
LTYPE
  5
14
330
5
100
AcDbSymbolTableRecord
100
AcDbLinetypeTableRecord
  2
ByBlock
 70
     0
  3

 72
    65
 73
     0
 40
0.0
  0
LTYPE
  5
15
330
5
100
AcDbSymbolTableRecord
100
AcDbLinetypeTableRecord
  2
ByLayer
 70
     0
  3

 72
    65
 73
     0
 40
0.0
  0
LTYPE
  5
16
330
5
100
AcDbSymbolTableRecord
100
AcDbLinetypeTableRecord
  2
Continuous
 70
     0
  3
Solid line
 72
    65
 73
     0
 40
0.0
  0
LTYPE
  5
3D38
330
5
100
AcDbSymbolTableRecord
100
AcDbLinetypeTableRecord
  2
MITTE
 70
     0
  3
Mitte ____ _ ____ _ ____ _ ____ _ ____ _ ____
 72
    65
 73
     4
 40
50.8
 49
31.75
 74
     0
 49
-6.349999999999999
 74
     0
 49
6.349999999999999
 74
     0
 49
-6.349999999999999
 74
     0
  0
LTYPE
  5
3DE5
330
5
100
AcDbSymbolTableRecord
100
AcDbLinetypeTableRecord
  2
ACAD_ISO10W100
 70
     0
  3
ISO Strichpunktlinie __ . __ . __ . __ . __ . __ . __ .
 72
    65
 73
     4
 40
18.0
 49
12.0
 74
     0
 49
-3.0
 74
     0
 49
0.0
 74
     0
 49
-3.0
 74
     0
  0
LTYPE
  5
42B3
330
5
100
AcDbSymbolTableRecord
100
AcDbLinetypeTableRecord
  2
VERDECKT
 70
     0
  3
Verdeckt __ __ __ __ __ __ __ __ __ __ __ __ __
 72
    65
 73
     2
 40
9.524999999999997
 49
6.349999999999999
 74
     0
 49
-3.174999999999999
 74
     0
  0
LTYPE
  5
4BBA
330
5
100
AcDbSymbolTableRecord
100
AcDbLinetypeTableRecord
  2
HIDDEN
 70
     0
  3
Hidden __ __ __ __ __ __ __ __ __ __ __ __ __ __
 72
    65
 73
     2
 40
1.905
 49
1.27
 74
     0
 49
-0.635
 74
     0
  0
LTYPE
  5
E246
330
5
100
AcDbSymbolTableRecord
100
AcDbLinetypeTableRecord
  2
CENTERX2
 70
     0
  3
Center (2x) ________  __  ________  __  _____
 72
    65
 73
     4
 40
20.32
 49
12.7
 74
     0
 49
-2.54
 74
     0
 49
2.54
 74
     0
 49
-2.54
 74
     0
  0
ENDTAB
  0
TABLE
  2
LAYER
  5
2
102
{ACAD_XDICTIONARY
360
3AAA
102
}
330
0
100
AcDbSymbolTable
 70
     7
  0
LAYER
  5
10
102
{ACAD_XDICTIONARY
360
3B92
102
}
330
2
100
AcDbSymbolTableRecord
100
AcDbLayerTableRecord
  2
0
 70
     0
 62
     7
  6
Continuous
370
    20
390
28
347
37C4
  0
LAYER
  5
34
102
{ACAD_XDICTIONARY
360
3B94
102
}
330
2
100
AcDbSymbolTableRecord
100
AcDbLayerTableRecord
  2
bemaßung
 70
     0
 62
     7
  6
Continuous
370
     9
390
28
347
37C4
  0
LAYER
  5
32C0
330
2
100
AcDbSymbolTableRecord
100
AcDbLayerTableRecord
  2
Defpoints
 70
     0
 62
     7
  6
Continuous
290
     0
370
     9
390
28
347
37C4
  0
LAYER
  5
3D39
330
2
100
AcDbSymbolTableRecord
100
AcDbLayerTableRecord
  2
mittellinien_aktuell
 70
     0
 62
     7
  6
MITTE
370
     9
390
28
347
37C4
  0
LAYER
  5
3DE6
330
2
100
AcDbSymbolTableRecord
100
AcDbLayerTableRecord
  2
Kontur 2
 70
     0
 62
     8
  6
Continuous
370
     9
390
28
347
37C4
1001
AcAecLayerStandard
1000

1000

  0
LAYER
  5
42B4
330
2
100
AcDbSymbolTableRecord
100
AcDbLayerTableRecord
  2
verdeckt
 70
     0
 62
     7
  6
VERDECKT
370
     9
390
28
347
37C4
  0
LAYER
  5
450D
330
2
100
AcDbSymbolTableRecord
100
AcDbLayerTableRecord
  2
SLD-0
 70
     0
 62
     7
  6
Continuous
370
    40
390
F
347
37C4
  0
ENDTAB
  0
TABLE
  2
STYLE
  5
3
330
0
100
AcDbSymbolTable
 70
     3
  0
STYLE
  5
11
330
3
100
AcDbSymbolTableRecord
100
AcDbTextStyleTableRecord
  2
Standard
 70
     0
 40
0.0
 41
1.0
 50
0.0
 71
     0
 42
2.5
  3
txt
  4

  0
STYLE
  5
341C
330
3
100
AcDbSymbolTableRecord
100
AcDbTextStyleTableRecord
  2
arial
 70
     0
 40
0.0
 41
1.0
 50
0.0
 71
     0
 42
2.5
  3
arial.ttf
  4

1001
ACAD
1000
Arial
1071
       34
  0
STYLE
  5
3DEA
330
3
100
AcDbSymbolTableRecord
100
AcDbTextStyleTableRecord
  2
_STYLE
 70
     0
 40
0.0
 41
1.0
 50
10.0
 71
     0
 42
25.0
  3
ROMANS8.SHX
  4

  0
ENDTAB
  0
TABLE
  2
VIEW
  5
6
330
0
100
AcDbSymbolTable
 70
     0
  0
ENDTAB
  0
TABLE
  2
UCS
  5
7
330
0
100
AcDbSymbolTable
 70
     0
  0
ENDTAB
  0
TABLE
  2
APPID
  5
9
330
0
100
AcDbSymbolTable
 70
     9
  0
APPID
  5
12
330
9
100
AcDbSymbolTableRecord
100
AcDbRegAppTableRecord
  2
ACAD
 70
     0
  0
APPID
  5
2EA9
330
9
100
AcDbSymbolTableRecord
100
AcDbRegAppTableRecord
  2
DCO15
 70
     0
  0
APPID
  5
3C0D
330
9
100
AcDbSymbolTableRecord
100
AcDbRegAppTableRecord
  2
AcAecLayerStandard
 70
     0
  0
APPID
  5
3DEB
330
9
100
AcDbSymbolTableRecord
100
AcDbRegAppTableRecord
  2
ACAD_PSEXT
 70
     0
  0
APPID
  5
3DEC
330
9
100
AcDbSymbolTableRecord
100
AcDbRegAppTableRecord
  2
ACAD_DSTYLE_DIMRADIAL_EXTENSION
 70
     0
  0
APPID
  5
4383
330
9
100
AcDbSymbolTableRecord
100
AcDbRegAppTableRecord
  2
ACAD_EXEMPT_FROM_CAD_STANDARDS
 70
     0
  0
APPID
  5
486A
330
9
100
AcDbSymbolTableRecord
100
AcDbRegAppTableRecord
  2
AcadAnnoMonitorAlertIconDisabled
 70
     0
  0
APPID
  5
487E
330
9
100
AcDbSymbolTableRecord
100
AcDbRegAppTableRecord
  2
ACAD_NAV_VCDISPLAY
 70
     0
  0
APPID
  5
10156C2
330
9
100
AcDbSymbolTableRecord
100
AcDbRegAppTableRecord
  2
Acad_TC
 70
     0
  0
ENDTAB
  0
TABLE
  2
DIMSTYLE
  5
A
330
0
100
AcDbSymbolTable
 70
     2
100
AcDbDimStyleTable
  0
DIMSTYLE
105
27
330
A
100
AcDbSymbolTableRecord
100
AcDbDimStyleTableRecord
  2
ISO-25
 70
     0
 41
55.0
 42
7.0
 43
1.0
 44
7.0
 73
     0
 74
     0
 77
     1
 78
     8
140
35.0
141
0.0
143
0.03937007874016
147
10.0
171
     3
172
     1
176
   256
177
   256
271
     0
178
     7
271
     0
272
     0
274
     3
278
    44
283
     0
284
     8
340
341C
371
    -1
372
    -1
  0
DIMSTYLE
105
3C0C
330
A
100
AcDbSymbolTableRecord
100
AcDbDimStyleTableRecord
  2
STANDARD
 70
     0
178
     0
340
11
  0
ENDTAB
  0
TABLE
  2
BLOCK_RECORD
  5
1
330
0
100
AcDbSymbolTable
 70
     8
  0
BLOCK_RECORD
  5
1F
102
{ACAD_XDICTIONARY
360
14C1
102
}
330
1
100
AcDbSymbolTableRecord
100
AcDbBlockTableRecord
  2
*Model_Space
340
22
 70
     0
280
     1
281
     0
  0
BLOCK_RECORD
  5
1B
330
1
100
AcDbSymbolTableRecord
100
AcDbBlockTableRecord
  2
*Paper_Space
340
1E
 70
     0
280
     1
281
     0
  0
BLOCK_RECORD
  5
23
330
1
100
AcDbSymbolTableRecord
100
AcDbBlockTableRecord
  2
*Paper_Space0
340
26
 70
     0
280
     1
281
     0
  0
BLOCK_RECORD
  5
4502
330
1
100
AcDbSymbolTableRecord
100
AcDbBlockTableRecord
  2
SW_CENTERMARKSYMBOL_0
340
0
 70
     0
280
     1
281
     0
  0
BLOCK_RECORD
  5
D776
330
1
100
AcDbSymbolTableRecord
100
AcDbBlockTableRecord
  2
A$C12EA5255
340
0
 70
     4
280
     1
281
     0
  0
BLOCK_RECORD
  5
1013313
102
{ACAD_XDICTIONARY
360
1013316
102
}
330
1
100
AcDbSymbolTableRecord
100
AcDbBlockTableRecord
  2
A$C2FFA6D54
340
0
 70
     4
280
     1
281
     0
  0
BLOCK_RECORD
  5
101352B
102
{ACAD_XDICTIONARY
360
101352D
102
}
330
1
100
AcDbSymbolTableRecord
100
AcDbBlockTableRecord
  2
A$C112A0DE8
340
0
 70
     4
280
     1
281
     0
  0
BLOCK_RECORD
  5
101366D
102
{ACAD_XDICTIONARY
360
101366E
102
}
330
1
100
AcDbSymbolTableRecord
100
AcDbBlockTableRecord
  2
A$C5D911E66
340
0
102
{BLKREFS
331
1013678
102
}
 70
     4
280
     1
281
     0
  0
BLOCK_RECORD
  5
1013674
102
{ACAD_XDICTIONARY
360
1013675
102
}
330
1
100
AcDbSymbolTableRecord
100
AcDbBlockTableRecord
  2
A$C1B8C2529
340
0
 70
     4
280
     1
281
     0
  0
BLOCK_RECORD
  5
1013D01
330
1
100
AcDbSymbolTableRecord
100
AcDbBlockTableRecord
  2
A$C44595064
340
0
 70
     4
280
     1
281
     0
  0
ENDTAB
  0
ENDSEC
  0
SECTION
  2
BLOCKS
  0
BLOCK
  5
20
330
1F
100
AcDbEntity
  8
0
100
AcDbBlockBegin
  2
*Model_Space
 70
     0
 10
0.0
 20
0.0
 30
0.0
  3
*Model_Space
  1

  0
ENDBLK
  5
21
330
1F
100
AcDbEntity
  8
0
100
AcDbBlockEnd
  0
BLOCK
  5
1C
330
1B
100
AcDbEntity
 67
     1
  8
0
100
AcDbBlockBegin
  2
*Paper_Space
 70
     0
 10
0.0
 20
0.0
 30
0.0
  3
*Paper_Space
  1

  0
ENDBLK
  5
1D
330
1B
100
AcDbEntity
 67
     1
  8
0
100
AcDbBlockEnd
  0
BLOCK
  5
24
330
23
100
AcDbEntity
  8
0
100
AcDbBlockBegin
  2
*Paper_Space0
 70
     0
 10
0.0
 20
0.0
 30
0.0
  3
*Paper_Space0
  1

  0
ENDBLK
  5
25
330
23
100
AcDbEntity
  8
0
100
AcDbBlockEnd
  0
BLOCK
  5
4503
330
4502
100
AcDbEntity
  8
0
100
AcDbBlockBegin
  2
SW_CENTERMARKSYMBOL_0
 70
     0
 10
0.0
 20
0.0
 30
0.0
  3
SW_CENTERMARKSYMBOL_0
  1

  0
LINE
  5
4504
330
4502
100
AcDbEntity
  8
SLD-0
 62
     0
100
AcDbLine
 10
0.0
 20
0.0
 30
0.0
 11
0.0
 21
0.125000000000014
 31
0.0
  0
LINE
  5
4505
330
4502
100
AcDbEntity
  8
SLD-0
 62
     0
100
AcDbLine
 10
0.0
 20
0.0
 30
0.0
 11
-0.1249999999999862
 21
0.0
 31
0.0
  0
LINE
  5
4506
330
4502
100
AcDbEntity
  8
SLD-0
 62
     0
100
AcDbLine
 10
0.0
 20
0.0
 30
0.0
 11
0.0
 21
-0.1249999999999862
 31
0.0
  0
LINE
  5
4507
330
4502
100
AcDbEntity
  8
SLD-0
 62
     0
100
AcDbLine
 10
0.0
 20
0.0
 30
0.0
 11
0.125000000000014
 21
0.0
 31
0.0
  0
LINE
  5
4508
330
4502
100
AcDbEntity
  8
SLD-0
 62
     0
100
AcDbLine
 10
0.0
 20
0.2500000000000002
 30
0.0
 11
0.0
 21
1.748223304703367
 31
0.0
  0
LINE
  5
4509
330
4502
100
AcDbEntity
  8
SLD-0
 62
     0
100
AcDbLine
 10
-0.2500000000000002
 20
0.0
 30
0.0
 11
-1.748223304703367
 21
0.0
 31
0.0
  0
LINE
  5
450A
330
4502
100
AcDbEntity
  8
SLD-0
 62
     0
100
AcDbLine
 10
0.0
 20
-0.2500000000000002
 30
0.0
 11
0.0
 21
-1.748223304703367
 31
0.0
  0
LINE
  5
450B
330
4502
100
AcDbEntity
  8
SLD-0
 62
     0
100
AcDbLine
 10
0.2500000000000002
 20
0.0
 30
0.0
 11
1.748223304703367
 21
0.0
 31
0.0
  0
ENDBLK
  5
450C
330
4502
100
AcDbEntity
  8
0
100
AcDbBlockEnd
  0
BLOCK
  5
D796
330
D776
100
AcDbEntity
  8
0
100
AcDbBlockBegin
  2
A$C12EA5255
 70
     0
 10
0.0
 20
0.0
 30
0.0
  3
A$C12EA5255
  1

  0
LINE
  5
D777
330
D776
100
AcDbEntity
  8
0
  6
Continuous
 62
     7
370
    25
100
AcDbLine
 10
49.99999852014309
 20
609.0000001885087
 30
0.0
 11
49.99999852014309
 21
190.0000001885087
 31
0.0
  0
SPLINE
  5
D778
330
D776
100
AcDbEntity
  8
0
  6
Continuous
 62
     7
370
    25
100
AcDbSpline
210
0.0
220
0.0
230
1.0
 70
     8
 71
     3
 72
    46
 73
    42
 74
     0
 42
0.000000001
 43
0.0000000001
 40
0.0093387754037048
 40
0.0093387754037048
 40
0.0093387754037048
 40
0.0093387754037048
 40
0.0112047337288628
 40
0.0131578587288628
 40
0.0134118297883191
 40
0.0134185436513415
 40
0.0151109837288628
 40
0.0170641087288628
 40
0.0183600061381616
 40
0.0209703587288628
 40
0.0229253959283066
 40
0.0248766087288628
 40
0.0274540177936526
 40
0.0287828587288628
 40
0.0319880348790946
 40
0.0326891087288628
 40
0.0365591578990527
 40
0.0370836399788628
 40
0.0405016087288628
 40
0.045625848257795
 40
0.0483141087288628
 40
0.0501821462887541
 40
0.0522203587288628
 40
0.0547422582789032
 40
0.057726941139723
 40
0.0600328587288628
 40
0.0638070226115807
 40
0.0639391087288629
 40
0.0678453587288629
 40
0.0697453819685538
 40
0.0697984837288629
 40
0.0717516087288629
 40
0.0729003999349735
 40
0.0729120684977263
 40
0.0737047337288629
 40
0.0756578587288629
 40
0.0776109837288629
 40
0.0777591678602075
 40
0.0778004486855393
 40
0.0795641087288629
 40
0.0819440833251581
 40
0.0819440833251581
 40
0.0819440833251581
 40
0.0819440833251581
 10
50.00333019019183
 20
190.0000139903503
 30
0.0
 10
50.0097495384278
 20
188.4503976031486
 30
0.0
 10
50.0375905902995
 20
184.9787460195045
 30
0.0
 10
50.31994664042301
 20
180.3383814012373
 30
0.0
 10
50.51844031508207
 20
177.9731807630219
 30
0.0
 10
50.69832435436933
 20
175.9014835310107
 30
0.0
 10
51.09278815204522
 20
172.2097645918944
 30
0.0
 10
51.8114366968337
 20
167.4282296086287
 30
0.0
 10
52.87894730341253
 20
161.5987097463093
 30
0.0
 10
54.19812757540683
 20
155.6998827956243
 30
0.0
 10
55.97125577627816
 20
149.3798844133589
 30
0.0
 10
57.99896817878809
 20
143.203549840754
 30
0.0
 10
60.10964570442879
 20
137.6455579293118
 30
0.0
 10
62.95404197029859
 20
131.0156893471597
 30
0.0
 10
65.28451102406669
 20
126.2773338981434
 30
0.0
 10
69.04149708376751
 20
119.3860159464921
 30
0.0
 10
71.72924365011347
 20
114.9758797080638
 30
0.0
 10
76.15706543010442
 20
108.4355399436387
 30
0.0
 10
81.61254692646608
 20
101.0836948677103
 30
0.0
 10
89.19873208951168
 20
92.6076047267021
 30
0.0
 10
96.32554365208296
 20
85.88455241525469
 30
0.0
 10
101.4000675414481
 20
81.5545666207775
 30
0.0
 10
106.5193622289422
 20
77.54767607050024
 30
0.0
 10
112.7485882117172
 20
73.14534505752431
 30
0.0
 10
119.4584511674247
 20
68.977633104441
 30
0.0
 10
127.5117625361859
 20
64.59728203801114
 30
0.0
 10
133.2286838497845
 20
61.96604953990754
 30
0.0
 10
140.5230930114733
 20
58.96828214165521
 30
0.0
 10
146.1484327827214
 20
56.93460043315179
 30
0.0
 10
151.8850040738497
 20
55.27843835292833
 30
0.0
 10
155.6817721840363
 20
54.25704829084611
 30
0.0
 10
158.7238468803958
 20
53.5008093633794
 30
0.0
 10
161.8766799266691
 20
52.85267137880192
 30
0.0
 10
163.8414021078404
 20
52.47116186705409
 30
0.0
 10
166.6020112521324
 20
51.95708399121349
 30
0.0
 10
171.0400370056716
 20
51.23175623693885
 30
0.0
 10
175.3320561950036
 20
50.7559066042113
 30
0.0
 10
177.6021314594285
 20
50.55525301580803
 30
0.0
 10
179.6708213642408
 20
50.37657025445537
 30
0.0
 10
184.0855562811776
 20
50.08029133322373
 30
0.0
 10
187.9705950802822
 20
50.01181742477968
 30
0.0
 10
189.9999965435467
 20
49.99967098384286
 30
0.0
  0
SPLINE
  5
D779
330
D776
100
AcDbEntity
  8
0
  6
Continuous
 62
     7
370
    25
100
AcDbSpline
210
0.0
220
0.0
230
1.0
 70
     8
 71
     3
 72
    44
 73
    40
 74
     0
 42
0.000000001
 43
0.0000000001
 40
0.8557368155066101
 40
0.8557368155066101
 40
0.8557368155066101
 40
0.8557368155066101
 40
0.8557844654192188
 40
0.8572630909103149
 40
0.8587574434053926
 40
0.8611693409103149
 40
0.8618770850385709
 40
0.8619167014255815
 40
0.8619809985037119
 40
0.8650755909103149
 40
0.8650755909103149
 40
0.8650755909103149
 40
0.8759738011833947
 40
0.8807005909103149
 40
0.8868879503893575
 40
0.8978246639064723
 40
0.9087796189238774
 40
0.9119505909103149
 40
0.913402694091565
 40
0.9220598644261216
 40
0.9307218841825668
 40
0.9417018241970634
 40
0.9432005909103149
 40
0.9526849405425772
 40
0.9614476340095064
 40
0.9710825140833373
 40
0.9744505909103149
 40
0.9807181851085497
 40
0.9900755909103149
 40
0.9920287159103149
 40
0.9947366483386206
 40
0.9978880909103149
 40
0.9998412159103149
 40
1.001794340910315
 40
1.003747465910315
 40
1.005700590910315
 40
1.008755756800791
 40
1.008819954447715
 40
1.009338775403705
 40
1.009338775403705
 40
1.009338775403705
 40
1.009338775403705
 10
189.9999965435464
 20
49.99967098384286
 30
0.0
 10
190.0406275664671
 20
49.99942779769697
 30
0.0
 10
191.3394866053565
 20
49.99198731275192
 30
0.0
 10
193.7449105038225
 20
49.99862081627839
 30
0.0
 10
197.3877581306865
 20
50.00213389835153
 30
0.0
 10
200.1979752650297
 20
50.0000803388516
 30
0.0
 10
202.3305903900835
 20
49.99971572406548
 30
0.0
 10
202.8849078712058
 20
49.99965865429954
 30
0.0
 10
205.0726332156351
 20
49.99945297387012
 30
0.0
 10
207.3234808045011
 20
49.99978571457677
 30
0.0
 10
209.4999985201431
 20
50.00000018850869
 30
0.0
 10
217.1650298430201
 20
50.00075550025906
 30
0.0
 10
227.6475050843809
 20
49.99985587586536
 30
0.0
 10
242.6737326118862
 20
50.0000336417628
 30
0.0
 10
257.6909673032894
 20
49.99998139340801
 30
0.0
 10
277.0538122126472
 20
50.00000634083619
 30
0.0
 10
294.3644959596069
 20
49.99999965106474
 30
0.0
 10
305.1347433343099
 20
50.0000004072192
 30
0.0
 10
314.3184579467865
 20
50.00000065341783
 30
0.0
 10
327.3060433706565
 20
50.00000136183712
 30
0.0
 10
346.8991980649125
 20
50.00000391031472
 30
0.0
 10
361.5444510622311
 20
50.00000793760307
 30
0.0
 10
376.7622516016339
 20
50.00001416349858
 30
0.0
 10
390.4457618363621
 20
50.00002145404471
 30
0.0
 10
409.7719590503251
 20
50.00009329694274
 30
0.0
 10
424.8620984166974
 20
50.00023970632515
 30
0.0
 10
438.224416814147
 20
50.00045463896583
 30
0.0
 10
451.3957941431932
 20
50.00073624919753
 30
0.0
 10
463.5804976304952
 20
50.00056479856732
 30
0.0
 10
473.2880512659833
 20
49.99971798977185
 30
0.0
 10
478.7179396829487
 20
50.00197759261687
 30
0.0
 10
484.0692473015924
 20
50.00253702836176
 30
0.0
 10
488.7470768988255
 20
49.99702070646049
 30
0.0
 10
492.763088298611
 20
50.00538267140792
 30
0.0
 10
496.6062213511128
 20
49.99137269125799
 30
0.0
 10
501.7035585116598
 20
50.01567750982895
 30
0.0
 10
505.0895444818036
 20
49.98555761705279
 30
0.0
 10
508.0549077370765
 20
49.99568878998991
 30
0.0
 10
508.5466148494392
 20
49.99829620958815
 30
0.0
 10
508.9999867524171
 20
50.00160999523212
 30
0.0
  0
SPLINE
  5
D77A
330
D776
100
AcDbEntity
  8
0
  6
Continuous
 62
     7
370
    25
100
AcDbSpline
210
0.0
220
0.0
230
1.0
 70
     8
 71
     3
 72
    50
 73
    46
 74
     0
 42
0.000000001
 43
0.0000000001
 40
0.7834157501821299
 40
0.7834157501821299
 40
0.7834157501821299
 40
0.7834157501821299
 40
0.78368381568874
 40
0.78563694068874
 40
0.7873730053421414
 40
0.78759006568874
 40
0.78954319068874
 40
0.79149631568874
 40
0.7919689957290172
 40
0.7919897402008148
 40
0.79540256568874
 40
0.7965408718637623
 40
0.79930881568874
 40
0.8010739236958774
 40
0.801076087052331
 40
0.80126194068874
 40
0.80321506568874
 40
0.80516819068874
 40
0.8056144899687193
 40
0.80712131568874
 40
0.8101923540235161
 40
0.8101935388891688
 40
0.81102756568874
 40
0.81884006568874
 40
0.8192817169740387
 40
0.8238452932262933
 40
0.82665256568874
 40
0.828421955860859
 40
0.8316460080031897
 40
0.83446506568874
 40
0.8375126943360826
 40
0.8375141762344512
 40
0.83837131568874
 40
0.84227756568874
 40
0.8436437678069233
 40
0.84618381568874
 40
0.8466515263911616
 40
0.846652557598263
 40
0.84813694068874
 40
0.85009006568874
 40
0.8516837076384471
 40
0.8516848984310155
 40
0.85204319068874
 40
0.85399631568874
 40
0.8557368155066101
 40
0.8557368155066101
 40
0.8557368155066101
 40
0.8557368155066101
 10
508.9999867524171
 20
50.00160999523212
 30
0.0
 10
509.2342359041747
 20
50.00332216899312
 30
0.0
 10
511.2101917347396
 20
50.01970684037985
 30
0.0
 10
515.2928883828545
 20
50.08495533002588
 30
0.0
 10
519.7098424858486
 20
50.39760391181335
 30
0.0
 10
523.8349433102096
 20
50.771326688214
 30
0.0
 10
527.7750064146242
 20
51.22728356163486
 30
0.0
 10
532.2235393633584
 20
51.92314639160531
 30
0.0
 10
534.6710398973112
 20
52.37340329087078
 30
0.0
 10
538.5677817692003
 20
53.11235428477232
 30
0.0
 10
543.0391872590976
 20
54.14058665774871
 30
0.0
 10
550.1657705660002
 20
56.14429609978663
 30
0.0
 10
555.6424525937562
 20
57.93164700750583
 30
0.0
 10
559.9246011916842
 20
59.57173811371615
 30
0.0
 10
561.7534857448665
 20
60.31319314758019
 30
0.0
 10
563.756648245241
 20
61.13012214487139
 30
0.0
 10
567.546657906378
 20
62.7804520117727
 30
0.0
 10
571.5089076818281
 20
64.70719011943203
 30
0.0
 10
575.0194536224856
 20
66.52853728879802
 30
0.0
 10
579.4848661979165
 20
68.9668709179324
 30
0.0
 10
583.4349313299512
 20
71.38955249454852
 30
0.0
 10
586.7327779049747
 20
73.56532212393978
 30
0.0
 10
593.9905391272147
 20
78.44781146231634
 30
0.0
 10
601.1446008404935
 20
84.28478810425997
 30
0.0
 10
610.4143872536345
 20
93.36122879177128
 30
0.0
 10
615.759050020826
 20
99.20205813623181
 30
0.0
 10
621.4452435163564
 20
106.5076398815287
 30
0.0
 10
625.984600751051
 20
112.9734522004717
 30
0.0
 10
630.1781418086051
 20
119.687692756773
 30
0.0
 10
634.5354395591527
 20
127.8018301126664
 30
0.0
 10
637.0066764727899
 20
133.2094036301927
 30
0.0
 10
638.5300833056257
 20
136.8590102729004
 30
0.0
 10
640.3465708178459
 20
141.3279856409245
 30
0.0
 10
642.3827879809592
 20
147.1933383886713
 30
0.0
 10
644.5488073065959
 20
154.8185495304146
 30
0.0
 10
645.5806729140788
 20
159.1318605054911
 30
0.0
 10
646.1919847280494
 20
162.104824963064
 30
0.0
 10
646.578926938804
 20
164.0365114601087
 30
0.0
 10
647.2050058715993
 20
167.4474603932161
 30
0.0
 10
647.9390840042295
 20
172.5453684341387
 30
0.0
 10
648.3133475496592
 20
176.0479240353941
 30
0.0
 10
648.4898021098703
 20
178.0567889796461
 30
0.0
 10
648.6908419781128
 20
180.4569639824041
 30
0.0
 10
648.9581786811686
 20
184.9756673304399
 30
0.0
 10
648.9923268235717
 20
188.5303392072151
 30
0.0
 10
648.997951336077
 20
190.0000080232438
 30
0.0
  0
SPLINE
  5
D77B
330
D776
100
AcDbEntity
  8
0
  6
Continuous
 62
     7
370
    25
100
AcDbSpline
210
0.0
220
0.0
230
1.0
 70
     8
 71
     3
 72
    52
 73
    48
 74
     0
 42
0.000000001
 43
0.0000000001
 40
0.5818101793072249
 40
0.5818101793072249
 40
0.5818101793072249
 40
0.5818101793072249
 40
0.5818408987966369
 40
0.5820228044893548
 40
0.5839759294893548
 40
0.5859290544893548
 40
0.5865192512448383
 40
0.5865542257532728
 40
0.5878821794893548
 40
0.591197584563852
 40
0.5912026675127331
 40
0.5917884294893548
 40
0.5956946794893548
 40
0.5996009294893548
 40
0.6030585986550094
 40
0.6074134294893548
 40
0.6149202446768898
 40
0.6152259294893548
 40
0.6270189590689227
 40
0.6308509294893548
 40
0.6391184659817598
 40
0.643027959920866
 40
0.653056130161885
 40
0.6542884294893548
 40
0.6630853017663125
 40
0.6750706991649376
 40
0.6870601563134535
 40
0.6986651027750864
 40
0.7102707331912791
 40
0.718528273094121
 40
0.7246009294893548
 40
0.7267861951533116
 40
0.7350384261502702
 40
0.7402259294893548
 40
0.7456445198997466
 40
0.7558509294893548
 40
0.7562510645770216
 40
0.7636634294893548
 40
0.7668580748038334
 40
0.7695228044893548
 40
0.7734290544893548
 40
0.7753821794893548
 40
0.7774655629070026
 40
0.7792884294893548
 40
0.7830278672222319
 40
0.7831946794893548
 40
0.7834157501821299
 40
0.7834157501821299
 40
0.7834157501821299
 40
0.7834157501821299
 10
648.997951336077
 20
190.0000080232438
 30
0.0
 10
648.9980506076486
 20
190.0259473971923
 30
0.0
 10
648.998715148767
 20
190.205044197628
 30
0.0
 10
649.0039897127918
 20
191.9978514036633
 30
0.0
 10
648.9963834243251
 20
194.7622020431403
 30
0.0
 10
649.0003739017824
 20
197.6671116138816
 30
0.0
 10
649.0006097377357
 20
199.4153470481238
 30
0.0
 10
649.000553895182
 20
200.7501129948184
 30
0.0
 10
648.9992413054024
 20
204.0002409160645
 30
0.0
 10
648.9997783984487
 20
207.2130442782475
 30
0.0
 10
649.0000557876768
 20
209.9136950334778
 30
0.0
 10
649.0003390975403
 20
213.0230072809175
 30
0.0
 10
648.9997006133642
 20
218.8375215931721
 30
0.0
 10
649.000131578514
 20
226.6322859262513
 30
0.0
 10
649.0002077010657
 20
234.7398075305325
 30
0.0
 10
649.0000490643561
 20
245.3402214171537
 30
0.0
 10
649.0000021504331
 20
253.7594001300489
 30
0.0
 10
648.999957283437
 20
267.3255325021271
 30
0.0
 10
648.9999567652453
 20
278.3489746570424
 30
0.0
 10
648.9999704370043
 20
294.8824517386431
 30
0.0
 10
648.9999777946189
 20
305.9610317035743
 30
0.0
 10
648.9999858958467
 20
321.3283493818516
 30
0.0
 10
648.9999899368888
 20
331.8275866137423
 30
0.0
 10
648.9999941014399
 20
345.7103786449191
 30
0.0
 10
648.9999975704438
 20
360.9488435549151
 30
0.0
 10
648.9999999287365
 20
383.6363290705997
 30
0.0
 10
648.9999999874609
 20
408.2713725521892
 30
0.0
 10
648.9999985960582
 20
432.6468359976444
 30
0.0
 10
648.9999969168915
 20
454.4408808077466
 30
0.0
 10
648.9999958180267
 20
472.4053645202455
 30
0.0
 10
648.9999954428508
 20
483.8457044187193
 30
0.0
 10
648.9999953366655
 20
495.2828676547496
 30
0.0
 10
648.9999922683234
 20
506.1074483799592
 30
0.0
 10
648.9999646704882
 20
519.1728837707941
 30
0.0
 10
648.9999028143376
 20
533.5929770468517
 30
0.0
 10
648.9999414765325
 20
544.69652426539
 30
0.0
 10
649.0002254524334
 20
557.1811997498347
 30
0.0
 10
649.0004355214402
 20
564.8077739610425
 30
0.0
 10
648.9985769269072
 20
574.0112533713057
 30
0.0
 10
648.9969158780257
 20
580.7848110179248
 30
0.0
 10
648.9956447333045
 20
586.697210881697
 30
0.0
 10
649.0032607883406
 20
592.1721111529506
 30
0.0
 10
648.9987715855717
 20
596.2624789509027
 30
0.0
 10
648.9954414300995
 20
601.4424857239543
 30
0.0
 10
649.0099295966786
 20
604.9492226129817
 30
0.0
 10
648.9983159084904
 20
608.4633210833293
 30
0.0
 10
648.997005924563
 20
608.8032821220391
 30
0.0
 10
648.9961105274785
 20
608.9999824635591
 30
0.0
  0
SPLINE
  5
D77C
330
D776
100
AcDbEntity
  8
0
  6
Continuous
 62
     7
370
    25
100
AcDbSpline
210
0.0
220
0.0
230
1.0
 70
     8
 71
     3
 72
    47
 73
    43
 74
     0
 42
0.000000001
 43
0.0000000001
 40
0.5094584491340166
 40
0.5094584491340166
 40
0.5094584491340166
 40
0.5094584491340166
 40
0.5111905034412415
 40
0.5131436284412415
 40
0.5134643741621593
 40
0.5134806639191349
 40
0.5150967534412415
 40
0.5170498784412415
 40
0.5182245033947442
 40
0.5209561284412415
 40
0.5228039601452747
 40
0.5228058302003248
 40
0.5229092534412415
 40
0.5248623784412415
 40
0.5273458580547002
 40
0.5287686284412415
 40
0.5318901447306825
 40
0.5326748784412415
 40
0.536473136143626
 40
0.5365811284412415
 40
0.5404873784412415
 40
0.5455701693220676
 40
0.5482998784412415
 40
0.5501364198387951
 40
0.5522061284412415
 40
0.5547148499239928
 40
0.557710063760772
 40
0.5600186284412415
 40
0.5638065487350856
 40
0.5639248784412415
 40
0.5678311284412415
 40
0.569707799102422
 40
0.5697842534412415
 40
0.5717373784412415
 40
0.5729437749873372
 40
0.5729448665742095
 40
0.5736905034412415
 40
0.5756436284412415
 40
0.57774996524882
 40
0.5795498784412415
 40
0.5815030034412415
 40
0.5818101793072249
 40
0.5818101793072249
 40
0.5818101793072249
 40
0.5818101793072249
 10
648.9961105274785
 20
608.9999824635591
 30
0.0
 10
648.9890952313411
 20
610.5410988796955
 30
0.0
 10
648.9547375869527
 20
614.2043161951636
 30
0.0
 10
648.6883375043608
 20
618.5752366974726
 30
0.0
 10
648.4860002052161
 20
620.9739917563529
 30
0.0
 10
648.3070266412192
 20
623.0083046789346
 30
0.0
 10
647.9214057837719
 20
626.6418204599568
 30
0.0
 10
647.2350439142576
 20
631.3142194194149
 30
0.0
 10
646.1821053786356
 20
637.1450304742644
 30
0.0
 10
644.9018087713342
 20
642.8858960240665
 30
0.0
 10
643.664187500794
 20
647.3441414595828
 30
0.0
 10
643.098765408539
 20
649.2311546054098
 30
0.0
 10
642.5005938171875
 20
651.2190790203126
 30
0.0
 10
641.0835608413538
 20
655.5692187843362
 30
0.0
 10
638.981084270846
 20
661.1313317074623
 30
0.0
 10
636.1795738571641
 20
667.6880962159278
 30
0.0
 10
633.81263131304
 20
672.5301498667787
 30
0.0
 10
630.0961017202476
 20
679.3817329305148
 30
0.0
 10
627.6237989871294
 20
683.4498277216386
 30
0.0
 10
623.2332252406134
 20
690.0283881277248
 30
0.0
 10
617.7941339864467
 20
697.452706273249
 30
0.0
 10
609.8730644857797
 20
706.3198248434463
 30
0.0
 10
602.7623270420869
 20
713.0377281261382
 30
0.0
 10
597.6496187982938
 20
717.405211803788
 30
0.0
 10
592.5338948813937
 20
721.4133592119614
 30
0.0
 10
586.2710135289124
 20
725.8417270674846
 30
0.0
 10
579.5500759387828
 20
730.0180497767218
 30
0.0
 10
571.4581604395415
 20
734.4187619154573
 30
0.0
 10
565.7273671790924
 20
737.05375312826
 30
0.0
 10
558.4193692292408
 20
740.0534454791865
 30
0.0
 10
552.8196786927818
 20
742.0756475071703
 30
0.0
 10
547.071741385168
 20
743.7335981537082
 30
0.0
 10
543.2686480043096
 20
744.7556202165947
 30
0.0
 10
540.1454726664829
 20
745.5304265653331
 30
0.0
 10
536.9328391936895
 20
746.186236548805
 30
0.0
 10
534.9649660788772
 20
746.5650734026568
 30
0.0
 10
532.2596419210172
 20
747.0661568368158
 30
0.0
 10
527.7292851967225
 20
747.8039008403334
 30
0.0
 10
521.4465949874573
 20
748.4834613304942
 30
0.0
 10
515.1806718032932
 20
748.900312839501
 30
0.0
 10
511.2741076244135
 20
748.98533147458
 30
0.0
 10
509.269262549838
 20
749.0005981416264
 30
0.0
 10
509.0000114019435
 20
749.0021860744462
 30
0.0
  0
SPLINE
  5
D77D
330
D776
100
AcDbEntity
  8
0
  6
Continuous
 62
     7
370
    25
100
AcDbSpline
210
0.0
220
0.0
230
1.0
 70
     8
 71
     3
 72
    48
 73
    44
 74
     0
 42
0.000000001
 43
0.0000000001
 40
0.3560295396278658
 40
0.3560295396278658
 40
0.3560295396278658
 40
0.3560295396278658
 40
0.3562716457234768
 40
0.3563133009850489
 40
0.3576754887618824
 40
0.3615817387618824
 40
0.365160752542715
 40
0.365162433975691
 40
0.3654879887618824
 40
0.3693942387618824
 40
0.3733004887618824
 40
0.3756431136137798
 40
0.3772067387618824
 40
0.3811129887618824
 40
0.3861248806787818
 40
0.3966060627295788
 40
0.3967379887618824
 40
0.4045504887618824
 40
0.4070866715910981
 40
0.4176014770817184
 40
0.4281157386073575
 40
0.4326051465398401
 40
0.4348542483590593
 40
0.4371038252320197
 40
0.4461018813942801
 40
0.4582748617143752
 40
0.4640969467270218
 40
0.4670504887618824
 40
0.4730940640606389
 40
0.4820910633392381
 40
0.4820925524856395
 40
0.4826754887618824
 40
0.4904879887618824
 40
0.4910879222874895
 40
0.4983004887618824
 40
0.50008461922379
 40
0.5041598637618824
 40
0.5047651535170687
 40
0.5047670213415327
 40
0.5061129887618824
 40
0.5080661137618824
 40
0.5094454352497862
 40
0.5094584491340166
 40
0.5094584491340166
 40
0.5094584491340166
 40
0.5094584491340166
 10
509.0000114019435
 20
749.0021860744462
 30
0.0
 10
508.7877963441398
 20
749.0034376318038
 30
0.0
 10
508.5414047216346
 20
749.0045500802314
 30
0.0
 10
507.1283704884956
 20
749.0090041407475
 30
0.0
 10
502.8282579652171
 20
748.9926023327271
 30
0.0
 10
497.4322745503032
 20
749.0035104782664
 30
0.0
 10
492.2365482031699
 20
749.0003592950715
 30
0.0
 10
489.5317044082959
 20
748.9996634066964
 30
0.0
 10
486.6008692620362
 20
748.9990033257798
 30
0.0
 10
481.0181047319049
 20
749.0009678651975
 30
0.0
 10
473.9424129654608
 20
748.999685255794
 30
0.0
 10
468.537967851505
 20
748.9999049166365
 30
0.0
 10
463.1355025637449
 20
749.0001885148142
 30
0.0
 10
455.8628890473885
 20
748.9998255861108
 30
0.0
 10
442.4196807969037
 20
748.99964705369
 30
0.0
 10
431.6055952211073
 20
748.9998972185313
 30
0.0
 10
418.8477302188863
 20
749.0000112131722
 30
0.0
 10
411.5885522554246
 20
748.9999963083499
 30
0.0
 10
397.1387100045436
 20
748.9999736253169
 30
0.0
 10
380.8187906112819
 20
748.9999571578263
 30
0.0
 10
363.1479016403116
 20
748.9999497350647
 30
0.0
 10
351.2015039846259
 20
748.9999470514335
 30
0.0
 10
344.9780032995936
 20
748.9999459314372
 30
0.0
 10
335.6327856733693
 20
748.9999443936247
 30
0.0
 10
319.416823266489
 20
748.9999417651665
 30
0.0
 10
300.7284050082958
 20
748.9999337486721
 30
0.0
 10
286.2253435473519
 20
748.9999197099391
 30
0.0
 10
275.9659054584504
 20
748.9999063343463
 30
0.0
 10
263.5085997966461
 20
748.9998853371519
 30
0.0
 10
253.0951607633022
 20
748.9999305321662
 30
0.0
 10
246.4620943472478
 20
749.000022592151
 30
0.0
 10
240.6490399281244
 20
749.0001068729422
 30
0.0
 10
234.4223049999311
 20
749.0002548975227
 30
0.0
 10
223.6051502541644
 20
749.0019222584718
 30
0.0
 10
216.9611563017573
 20
749.0030125314527
 30
0.0
 10
207.9080954405588
 20
748.9906895179962
 30
0.0
 10
203.4335567387512
 20
748.9880528973779
 30
0.0
 10
200.1980850520492
 20
748.9985806918544
 30
0.0
 10
198.8555800404049
 20
749.0026188565887
 30
0.0
 10
196.6132498548602
 20
749.0081067201297
 30
0.0
 10
193.7229063017426
 20
748.9816895575365
 30
0.0
 10
191.1808335419314
 20
749.0093506077103
 30
0.0
 10
190.0109312275617
 20
749.007638256482
 30
0.0
 10
189.9999865789683
 20
749.007621078571
 30
0.0
  0
SPLINE
  5
D77E
330
D776
100
AcDbEntity
  8
0
  6
Continuous
 62
     7
370
    25
100
AcDbSpline
210
0.0
220
0.0
230
1.0
 70
     8
 71
     3
 72
    48
 73
    44
 74
     0
 42
0.000000001
 43
0.0000000001
 40
0.283672706610553
 40
0.283672706610553
 40
0.283672706610553
 40
0.283672706610553
 40
0.2836853718333157
 40
0.2842334962384188
 40
0.2877352431050487
 40
0.2877370869609457
 40
0.2881397462384188
 40
0.2900928712384188
 40
0.2920459962384188
 40
0.2928236045415053
 40
0.2928277242506045
 40
0.2959522462384188
 40
0.2974115589890893
 40
0.2979053712384188
 40
0.2998584962384188
 40
0.3018116212384188
 40
0.30195482498605
 40
0.3019563523809763
 40
0.3037647462384188
 40
0.3065023323695293
 40
0.3076709962384188
 40
0.3110855442337284
 40
0.3115772462384188
 40
0.3193897462384188
 40
0.320178110218647
 40
0.3232959962384188
 40
0.3247402386000224
 40
0.3272022462384188
 40
0.3311084962384188
 40
0.3319848908129011
 40
0.3319862393251999
 40
0.3383884376218618
 40
0.3428272462384188
 40
0.3439979653202032
 40
0.3467334962384188
 40
0.3475036210416066
 40
0.3486866212384188
 40
0.3506397462384188
 40
0.352053052329995
 40
0.3520547019313343
 40
0.3525928712384188
 40
0.3545459962384188
 40
0.3560295396278658
 40
0.3560295396278658
 40
0.3560295396278658
 40
0.3560295396278658
 10
189.9999865789683
 20
749.007621078571
 30
0.0
 10
189.9893351539178
 20
749.0076043608819
 30
0.0
 10
189.5173012047213
 20
749.0068149483557
 30
0.0
 10
185.9655632068588
 20
748.9850883963384
 30
0.0
 10
181.373008140167
 20
748.7765914212025
 30
0.0
 10
177.2614598777508
 20
748.4248383764291
 30
0.0
 10
174.8019953144729
 20
748.2020329759331
 30
0.0
 10
170.6431765723022
 20
747.6834506727681
 30
0.0
 10
165.8905716630181
 20
746.9283954683619
 30
0.0
 10
163.1582682898213
 20
746.4058826000262
 30
0.0
 10
159.2705172075503
 20
745.6264311369059
 30
0.0
 10
154.7732147508426
 20
744.5549998595984
 30
0.0
 10
149.8315386016172
 20
743.1244169275494
 30
0.0
 10
146.0501549940869
 20
741.9439910668755
 30
0.0
 10
141.8243947715524
 20
740.5021489569647
 30
0.0
 10
138.0074541578135
 20
739.010810557045
 30
0.0
 10
136.0493542843446
 20
738.1933937168619
 30
0.0
 10
134.2275798748761
 20
737.4294937030324
 30
0.0
 10
130.0218891404513
 20
735.5671262006741
 30
0.0
 10
124.8451682567129
 20
732.9668517704655
 30
0.0
 10
118.3655207161865
 20
729.3588353223149
 30
0.0
 10
114.0074389021513
 20
726.6349937489218
 30
0.0
 10
104.2219729071822
 20
719.9331948444074
 30
0.0
 10
97.0912066549195
 20
714.0595961268064
 30
0.0
 10
88.68653277792072
 20
705.6882489405255
 30
0.0
 10
85.01425937894837
 20
701.703395152831
 30
0.0
 10
80.45947036911689
 20
696.2433498544619
 30
0.0
 10
75.65377067329422
 20
689.962461718799
 30
0.0
 10
71.60586997663549
 20
683.8455826481502
 30
0.0
 10
69.14911597557777
 20
679.677597402668
 30
0.0
 10
65.4715359539312
 20
673.3002065991092
 30
0.0
 10
60.65643077625732
 20
663.4234565835006
 30
0.0
 10
56.64340281032827
 20
651.9352443520161
 30
0.0
 10
54.35024567790326
 20
643.7983754615025
 30
0.0
 10
53.25955346668538
 20
639.1925653498585
 30
0.0
 10
52.34325998983575
 20
634.5630486879827
 30
0.0
 10
51.6615556947901
 20
630.6843563157684
 30
0.0
 10
51.01857400737664
 20
626.0792898649127
 30
0.0
 10
50.66929883012517
 20
622.7627629254245
 30
0.0
 10
50.49331227476312
 20
620.760577041022
 30
0.0
 10
50.28161412607824
 20
618.1665065642701
 30
0.0
 10
50.03336124547559
 20
613.6092801949404
 30
0.0
 10
50.00449705640138
 20
610.3065148169583
 30
0.0
 10
50.00099997963676
 20
608.9999975076457
 30
0.0
  0
LINE
  5
D77F
330
D776
100
AcDbEntity
  8
0
  6
Continuous
 62
     7
370
    25
100
AcDbLine
 10
9.999998520143166
 20
799.0000001885086
 30
0.0
 11
688.9999985201431
 21
799.0000001885087
 31
0.0
  0
ARC
  5
D780
330
D776
100
AcDbEntity
  8
0
  6
Continuous
 62
     7
370
    25
100
AcDbCircle
 10
9.999998520143166
 20
789.0000001885086
 30
0.0
 40
10.00000000000003
100
AcDbArc
 50
90.0
 51
180.0
  0
ARC
  5
D781
330
D776
100
AcDbEntity
  8
0
  6
Continuous
 62
     7
370
    25
100
AcDbCircle
 10
688.9999985201431
 20
789.0000001885087
 30
0.0
 40
10.00000000000003
100
AcDbArc
 50
0.0
 51
90.0
  0
LINE
  5
D782
330
D776
100
AcDbEntity
  8
0
  6
Continuous
 62
     7
370
    25
100
AcDbLine
 10
-0.0000014798568984
 20
10.00000018850847
 30
0.0
 11
-0.0000014798568415
 21
789.0000001885086
 31
0.0
  0
LINE
  5
D783
330
D776
100
AcDbEntity
  8
0
  6
Continuous
 62
     7
370
    25
100
AcDbLine
 10
698.9999985201431
 20
789.0000001885087
 30
0.0
 11
698.9999985201431
 21
10.00000018850858
 31
0.0
  0
ARC
  5
D784
330
D776
100
AcDbEntity
  8
0
  6
Continuous
 62
     7
370
    25
100
AcDbCircle
 10
688.9999985201431
 20
10.00000018850858
 30
0.0
 40
10.0
100
AcDbArc
 50
270.0000000000008
 51
0.0
  0
ARC
  5
D785
330
D776
100
AcDbEntity
  8
0
  6
Continuous
 62
     7
370
    25
100
AcDbCircle
 10
9.999998520143116
 20
10.00000018850847
 30
0.0
 40
10.00000000000001
100
AcDbArc
 50
180.0
 51
270.0000000000008
  0
LINE
  5
D786
330
D776
100
AcDbEntity
  8
0
  6
Continuous
 62
     7
370
    25
100
AcDbLine
 10
688.9999985201431
 20
0.0000001885085794
 30
0.0
 11
9.999998520143116
 21
0.0000001885084657
 31
0.0
  0
SPLINE
  5
D787
330
D776
100
AcDbEntity
  8
0
  6
Continuous
 62
     7
370
    25
100
AcDbSpline
210
0.0
220
0.0
230
1.0
 70
     8
 71
     3
 72
    30
 73
    26
 74
     0
 42
0.000000001
 43
0.0000000001
 40
0.0
 40
0.0
 40
0.0
 40
0.0
 40
0.0234374985409174
 40
0.0468749981984598
 40
0.0703124952647888
 40
0.0937499950271474
 40
0.1171874940990899
 40
0.1406249940655403
 40
0.179687490856128
 40
0.2187499878894449
 40
0.265624983525261
 40
0.3124999818143344
 40
0.3593749812353244
 40
0.4062499799360064
 40
0.453124978549905
 40
0.4999999782336994
 40
0.5624999797238697
 40
0.6249999835100292
 40
0.6874999879586322
 40
0.7343749902805234
 40
0.7812499914112417
 40
0.859374991789814
 40
0.9374999928413387
 40
0.9687499959742134
 40
1.0
 40
1.0
 40
1.0
 40
1.0
 10
209.4999985409437
 20
128.500000148886
 30
0.0
 10
210.9288577255993
 20
128.5005248781329
 30
0.0
 10
213.7865761629852
 20
128.5015743366516
 30
0.0
 10
218.0731443139718
 20
128.5054269681881
 30
0.0
 10
222.3596983026538
 20
128.505928967211
 30
0.0
 10
226.6462270296628
 20
128.5032989681188
 30
0.0
 10
230.9327249368781
 20
128.4995771168365
 30
0.0
 10
236.171736593234
 20
128.5005265694505
 30
0.0
 10
242.3632176572906
 20
128.5026756454341
 30
0.0
 10
249.9833617290714
 20
128.500734632691
 30
0.0
 10
258.0795923256739
 20
128.4999116287685
 30
0.0
 10
266.6518683477879
 20
128.4994995718713
 30
0.0
 10
275.2239490250317
 20
128.5002573649266
 30
0.0
 10
283.7958466569667
 20
128.4997121669684
 30
0.0
 10
292.3675761452738
 20
128.4989956400037
 30
0.0
 10
301.8915518505136
 20
128.5006784443586
 30
0.0
 10
312.3677297710523
 20
128.4986839038847
 30
0.0
 10
323.7960832400809
 20
128.5007243036769
 30
0.0
 10
334.2719132934128
 20
128.4992013192909
 30
0.0
 10
343.7952893252514
 20
128.5005900464337
 30
0.0
 10
354.2709128035932
 20
128.4997550544985
 30
0.0
 10
366.6510698518778
 20
128.4952105782029
 30
0.0
 10
378.0787913072768
 20
128.4983611649419
 30
0.0
 10
386.6495317138197
 20
128.5014236404514
 30
0.0
 10
390.4587344216141
 20
128.5019909672257
 30
0.0
 10
392.3633358027216
 20
128.5022746306167
 30
0.0
  0
SPLINE
  5
D788
330
D776
100
AcDbEntity
  8
0
  6
Continuous
 62
     7
370
    25
100
AcDbSpline
210
0.0
220
0.0
230
1.0
 70
     8
 71
     3
 72
    21
 73
    17
 74
     0
 42
0.000000001
 43
0.0000000001
 40
0.0
 40
0.0
 40
0.0
 40
0.0
 40
0.0937500046681674
 40
0.1875000062821739
 40
0.3750000089703906
 40
0.4687500153875071
 40
0.5625000229768374
 40
0.6562500288102748
 40
0.7500000306684289
 40
0.843750026348329
 40
0.9218750197941589
 40
0.9414062705176248
 40
0.9609375225283583
 40
0.9843750074923188
 40
0.992187505676115
 40
0.9999999999999999
 40
0.9999999999999999
 40
0.9999999999999999
 40
0.9999999999999999
 10
392.3633358027203
 20
128.5022746306179
 30
0.0
 10
396.0083107717608
 20
128.5018958741578
 30
0.0
 10
403.2982605910968
 20
128.5011383612501
 30
0.0
 10
417.8780584405447
 20
128.4978264535471
 30
0.0
 10
432.4577559900237
 20
128.5011193881897
 30
0.0
 10
447.0373611722671
 20
128.5050132148347
 30
0.0
 10
457.97202473496
 20
128.5035000611717
 30
0.0
 10
468.9066509816276
 20
128.5009543911246
 30
0.0
 10
479.8412440846975
 20
128.4963327848368
 30
0.0
 10
490.1683311974419
 20
128.500995292983
 30
0.0
 10
497.609891924051
 20
128.5064567280492
 30
0.0
 10
502.1659402123055
 20
128.501111546699
 30
0.0
 10
504.5958195202105
 20
128.4941249945144
 30
0.0
 10
506.5701083165595
 20
128.4913057181363
 30
0.0
 10
508.0887864945227
 20
128.4959421813098
 30
0.0
 10
508.6962416844041
 20
128.5006673416938
 30
0.0
 10
508.9999692043136
 20
128.5030299213022
 30
0.0
  0
SPLINE
  5
D789
330
D776
100
AcDbEntity
  8
0
  6
Continuous
 62
     7
370
    25
100
AcDbSpline
210
0.0
220
0.0
230
1.0
 70
     8
 71
     3
 72
    44
 73
    40
 74
     0
 42
0.000000001
 43
0.0000000001
 40
0.0
 40
0.0
 40
0.0
 40
0.0
 40
0.009767436568173
 40
0.0195349541826296
 40
0.0293023645456132
 40
0.0390698074080528
 40
0.0625098500546002
 40
0.074230674180636
 40
0.0859515036976971
 40
0.1093923482120323
 40
0.1406454479473818
 40
0.1875184186495117
 40
0.2343923983242254
 40
0.265645291611958
 40
0.3125178634903957
 40
0.3593916005694474
 40
0.4062653254797291
 40
0.4687519146423875
 40
0.5156255207785597
 40
0.5624991938515811
 40
0.6093725743380175
 40
0.6562458056673072
 40
0.7187325212965406
 40
0.7656062386721905
 40
0.812479682641211
 40
0.859352709743686
 40
0.8749803088476688
 40
0.8906080324658142
 40
0.9003754577592126
 40
0.9101428511908575
 40
0.9199101300242506
 40
0.9296775255041545
 40
0.9413984331317374
 40
0.9531193874792222
 40
0.9628868136395384
 40
0.9726539572717662
 40
0.9824213483606689
 40
0.9921887956184644
 40
1.0
 40
1.0
 40
1.0
 40
1.0
 10
508.9999692043136
 20
128.5030299213022
 30
0.0
 10
509.3143532435162
 20
128.506916518542
 30
0.0
 10
509.9431239305546
 20
128.5146897452709
 30
0.0
 10
510.8860814090208
 20
128.5378842484469
 30
0.0
 10
511.8287489901582
 20
128.5710074715503
 30
0.0
 10
513.2104940131892
 20
128.6373121019836
 30
0.0
 10
514.6534154583811
 20
128.7434527119485
 30
0.0
 10
516.1531285024171
 20
128.9125978808146
 30
0.0
 10
517.6498611653426
 20
129.1062265826159
 30
0.0
 10
519.7622742157414
 20
129.4380414599249
 30
0.0
 10
522.9719127444794
 20
130.0667154534079
 30
0.0
 10
526.8664045354103
 20
131.0954475053818
 30
0.0
 10
530.6737833120237
 20
132.4083121975044
 30
0.0
 10
534.397886712773
 20
133.9362410117187
 30
0.0
 10
538.0161880254104
 20
135.7072271983338
 30
0.0
 10
541.9255801468496
 20
137.9974999508037
 30
0.0
 10
546.0799333758837
 20
140.8402062708911
 30
0.0
 10
549.9753556741475
 20
144.0368424633093
 30
0.0
 10
553.576582034345
 20
147.5544915236835
 30
0.0
 10
556.5818469533124
 20
150.9461299818527
 30
0.0
 10
559.3293966415827
 20
154.5500273281105
 30
0.0
 10
562.0760646773856
 20
158.7694676706848
 30
0.0
 10
564.4482668807316
 20
163.2155867597874
 30
0.0
 10
566.4301310000632
 20
167.843734616685
 30
0.0
 10
567.9076205789095
 20
172.1279146460005
 30
0.0
 10
568.8065784648784
 20
175.5369613801699
 30
0.0
 10
569.3219843572074
 20
177.9994462242639
 30
0.0
 10
569.5640092218555
 20
179.2981218290491
 30
0.0
 10
569.751925464192
 20
180.414657265738
 30
0.0
 10
569.8960805873953
 20
181.3471518211371
 30
0.0
 10
570.0188016113563
 20
182.2827355204627
 30
0.0
 10
570.1302818014119
 20
183.2829992262638
 30
0.0
 10
570.2338772008978
 20
184.3473265994492
 30
0.0
 10
570.325079027413
 20
185.4127734722784
 30
0.0
 10
570.401489681968
 20
186.4163091639332
 30
0.0
 10
570.4532484657984
 20
187.3585310399171
 30
0.0
 10
570.4772788879256
 20
188.3018078873236
 30
0.0
 10
570.4919367064305
 20
189.1822183861331
 30
0.0
 10
570.4963043717187
 20
189.7482304998586
 30
0.0
 10
570.4982451762203
 20
189.9997421853649
 30
0.0
  0
SPLINE
  5
D78A
330
D776
100
AcDbEntity
  8
0
  6
Continuous
 62
     7
370
    25
100
AcDbSpline
210
0.0
220
0.0
230
1.0
 70
     8
 71
     3
 72
    14
 73
    10
 74
     0
 42
0.000000001
 43
0.0000000001
 40
0.0
 40
0.0
 40
0.0
 40
0.0
 40
0.0624999433969508
 40
0.1249999032915469
 40
0.218749903682832
 40
0.3124999071911757
 40
0.4687499208409045
 40
0.6249999437355914
 40
1.0
 40
1.0
 40
1.0
 40
1.0
 10
570.4982468667818
 20
190.0000114514385
 30
0.0
 10
570.5003075935548
 20
190.406256992685
 30
0.0
 10
570.5044290476444
 20
191.2187481824117
 30
0.0
 10
570.501671133132
 20
192.6406251269589
 30
0.0
 10
570.4997874905289
 20
194.2656209757134
 30
0.0
 10
570.4979527568864
 20
196.4999958224737
 30
0.0
 10
570.4989004999245
 20
199.1406209817853
 30
0.0
 10
570.500844896248
 20
203.6093718538852
 30
0.0
 10
570.5002848995298
 20
207.0624987110498
 30
0.0
 10
570.4998896077282
 20
209.5000000245075
 30
0.0
  0
SPLINE
  5
D78B
330
D776
100
AcDbEntity
  8
0
  6
Continuous
 62
     7
370
    25
100
AcDbSpline
210
0.0
220
0.0
230
1.0
 70
     8
 71
     3
 72
    33
 73
    29
 74
     0
 42
0.000000001
 43
0.0000000001
 40
0.0
 40
0.0
 40
0.0
 40
0.0
 40
0.0234375026004439
 40
0.0468750039615911
 40
0.0703125064230011
 40
0.0937500079739962
 40
0.1406250086703721
 40
0.1875000097303294
 40
0.2343750119795001
 40
0.2812500134529912
 40
0.3593750080729013
 40
0.4375000063919356
 40
0.5624999853414241
 40
0.6562499843172357
 40
0.7499999851193383
 40
0.7968749889847337
 40
0.8437499936117105
 40
0.8632812460021949
 40
0.8828124984063095
 40
0.921875002681735
 40
0.937500004164835
 40
0.9531250054326403
 40
0.9726562542696333
 40
0.9785156292715256
 40
0.9843750040944153
 40
0.9902343772845497
 40
0.9960937504760867
 40
1.0
 40
1.0
 40
1.0
 40
1.0
 10
570.4998896077282
 20
209.5000000245076
 30
0.0
 10
570.4991790029674
 20
212.6213709355974
 30
0.0
 10
570.4977577934835
 20
218.8641125927294
 30
0.0
 10
570.4965952385701
 20
228.2282208911087
 30
0.0
 10
570.4969619039282
 20
237.5923202154356
 30
0.0
 10
570.499286692658
 20
250.0777673369957
 30
0.0
 10
570.5003204154439
 20
265.6845338497537
 30
0.0
 10
570.4977166693848
 20
284.4125503839784
 30
0.0
 10
570.5002158201844
 20
303.140434819432
 30
0.0
 10
570.499017173571
 20
326.0298761882347
 30
0.0
 10
570.500061684764
 20
353.0806894257659
 30
0.0
 10
570.499627700796
 20
390.5349647475749
 30
0.0
 10
570.5010727285882
 20
430.0690125647438
 30
0.0
 10
570.5028695039207
 20
471.6825895816567
 30
0.0
 10
570.500654158364
 20
502.8920331615377
 30
0.0
 10
570.5029618795429
 20
527.8591567657452
 30
0.0
 10
570.5027361653985
 20
542.9432959463221
 30
0.0
 10
570.5009462034475
 20
554.3863501361307
 30
0.0
 10
570.4974385745768
 20
564.7890823835654
 30
0.0
 10
570.5029524589692
 20
574.6716114951477
 30
0.0
 10
570.5026475961223
 20
584.0339578408855
 30
0.0
 10
570.497160281408
 20
590.7956289258252
 30
0.0
 10
570.493978667794
 20
596.2569636735792
 30
0.0
 10
570.4995473808526
 20
600.4179631528143
 30
0.0
 10
570.5050222681759
 20
602.7585166279905
 30
0.0
 10
570.5090376167209
 20
605.0990724436251
 30
0.0
 10
570.5060508194083
 20
607.179570798646
 30
0.0
 10
570.5007327570961
 20
608.4798698722043
 30
0.0
 10
570.498605531933
 20
608.9999895599121
 30
0.0
  0
SPLINE
  5
D78C
330
D776
100
AcDbEntity
  8
0
  6
Continuous
 62
     7
370
    25
100
AcDbSpline
210
0.0
220
0.0
230
1.0
 70
     8
 71
     3
 72
    34
 73
    30
 74
     0
 42
0.000000001
 43
0.0000000001
 40
0.0
 40
0.0
 40
0.0
 40
0.0
 40
0.010419604841627
 40
0.0208391881968392
 40
0.0312587211268167
 40
0.0547010667858766
 40
0.0937690145093344
 40
0.1406467934328133
 40
0.2187450844357902
 40
0.312436767746884
 40
0.3593146331745735
 40
0.4061926490158539
 40
0.4530704401922669
 40
0.4999481694303504
 40
0.5468263111593126
 40
0.5937040458088213
 40
0.6405816123610203
 40
0.6874592801370263
 40
0.7343372015364846
 40
0.7812152381211177
 40
0.8202828253953185
 40
0.8593503855148912
 40
0.9062280674995925
 40
0.9257641571310519
 40
0.9453002715751132
 40
0.9570221929852321
 40
0.9687440943405755
 40
0.9843718867078364
 40
0.9999999999999999
 40
0.9999999999999999
 40
0.9999999999999999
 40
0.9999999999999999
 10
570.498605531933
 20
608.9999895599121
 30
0.0
 10
570.4947823364826
 20
609.3353607243249
 30
0.0
 10
570.4871359534657
 20
610.0061023615771
 30
0.0
 10
570.4644840742349
 20
611.0120348477374
 30
0.0
 10
570.4163515704616
 20
612.4366621009882
 30
0.0
 10
570.2527419550524
 20
614.7792171266291
 30
0.0
 10
569.8418963483855
 20
618.2784235481215
 30
0.0
 10
568.8753020404614
 20
623.4743522298733
 30
0.0
 10
566.9144595803828
 20
630.2532645917819
 30
0.0
 10
564.0490010305296
 20
636.7144946520395
 30
0.0
 10
561.005901211069
 20
641.930606943595
 30
0.0
 10
558.4432541993968
 20
645.6682204079742
 30
0.0
 10
555.612991880341
 20
649.2074155933225
 30
0.0
 10
552.5274294329879
 20
652.5264557991037
 30
0.0
 10
549.208837747147
 20
655.6123215640466
 30
0.0
 10
545.6735556780708
 20
658.4476159355391
 30
0.0
 10
541.9371348286281
 20
661.0121540524322
 30
0.0
 10
538.0201381260956
 20
663.2913436552893
 30
0.0
 10
533.9454325877457
 20
665.274386111879
 30
0.0
 10
529.9713960648087
 20
666.8636128426606
 30
0.0
 10
526.1398942323642
 20
668.1036002418682
 30
0.0
 10
522.2397301353442
 20
669.1060644318367
 30
0.0
 10
518.8979234990576
 20
669.7285342479894
 30
0.0
 10
516.1546131854018
 20
670.0916714225579
 30
0.0
 10
514.527578671832
 20
670.2574472904238
 30
0.0
 10
513.1480973310651
 20
670.3649491230054
 30
0.0
 10
511.8924727416475
 20
670.4403116192834
 30
0.0
 10
510.5094393623317
 20
670.4845230776087
 30
0.0
 10
509.5032973375434
 20
670.4936125660164
 30
0.0
 10
509.0002211597889
 20
670.498157356884
 30
0.0
  0
SPLINE
  5
D78D
330
D776
100
AcDbEntity
  8
0
  6
Continuous
 62
     7
370
    25
100
AcDbSpline
210
0.0
220
0.0
230
1.0
 70
     8
 71
     3
 72
    32
 73
    28
 74
     0
 42
0.000000001
 43
0.0000000001
 40
0.0
 40
0.0
 40
0.0
 40
0.0
 40
0.0058593710487195
 40
0.0117187424354272
 40
0.0156249921712617
 40
0.0195312405555142
 40
0.025390615064969
 40
0.031249990177245
 40
0.0390624906052968
 40
0.0468749910601879
 40
0.0703124926395664
 40
0.093749994370027
 40
0.1406249970389229
 40
0.1874999990677898
 40
0.2500000008098315
 40
0.343750000072648
 40
0.4374999981548295
 40
0.50000000008636
 40
0.5625000012623773
 40
0.6250000016417333
 40
0.6875000023502041
 40
0.7812499988605874
 40
0.8593749968599302
 40
0.8828124981000196
 40
0.90624999947391
 40
0.9531250007833543
 40
1.0
 40
1.0
 40
1.0
 40
1.0
 10
508.9999902755914
 20
670.498158557734
 30
0.0
 10
508.4150727101139
 20
670.500503666589
 30
0.0
 10
507.2452375454191
 20
670.505193884434
 30
0.0
 10
505.6854388721603
 20
670.5043019420233
 30
0.0
 10
504.3206364376546
 20
670.4977328943411
 30
0.0
 10
502.9558142094565
 20
670.4971147053658
 30
0.0
 10
501.3960203538355
 20
670.4991691653555
 30
0.0
 10
499.446274117846
 20
670.5001039097793
 30
0.0
 10
497.3015515175878
 20
670.5001097720299
 30
0.0
 10
493.402051006667
 20
670.5002213512882
 30
0.0
 10
487.9427374193506
 20
670.4997031441128
 30
0.0
 10
478.5838793853325
 20
670.499909842137
 30
0.0
 10
466.8852413285207
 20
670.4999625322142
 30
0.0
 10
451.2869405538484
 20
670.4998978472784
 30
0.0
 10
431.008974538908
 20
670.500342511178
 30
0.0
 10
406.0511810393263
 20
670.4985970925027
 30
0.0
 10
381.0930431674527
 20
670.4995259782795
 30
0.0
 10
359.2544393339605
 20
670.5023102827774
 30
0.0
 10
340.5354891410101
 20
670.5010340783956
 30
0.0
 10
321.8164036350223
 20
670.5001408307328
 30
0.0
 10
299.9773299840413
 20
670.5033135286039
 30
0.0
 10
276.5781578576016
 20
670.5050776296234
 30
0.0
 10
257.0787404721913
 20
670.5047053897945
 30
0.0
 10
244.5990878638069
 20
670.5010902904991
 30
0.0
 10
235.2393396304963
 20
670.5015707808998
 30
0.0
 10
223.5396428593414
 20
670.5072053409242
 30
0.0
 10
214.1798799366176
 20
670.5023526831862
 30
0.0
 10
209.4999985797255
 20
670.4999263543715
 30
0.0
  0
SPLINE
  5
D78E
330
D776
100
AcDbEntity
  8
0
  6
Continuous
 62
     7
370
    25
100
AcDbSpline
210
0.0
220
0.0
230
1.0
 70
     8
 71
     3
 72
    12
 73
     8
 74
     0
 42
0.000000001
 43
0.0000000001
 40
0.0
 40
0.0
 40
0.0
 40
0.0
 40
0.3750001008199055
 40
0.5312501418975463
 40
0.6875001779868477
 40
0.8750000720685152
 40
1.0
 40
1.0
 40
1.0
 40
1.0
 10
209.4999985797255
 20
670.4999263543715
 30
0.0
 10
207.0624984184922
 20
670.4975271209737
 30
0.0
 10
203.6093731961277
 20
670.4941282069996
 30
0.0
 10
199.1406188437784
 20
670.4959264013605
 30
0.0
 10
195.8906296710077
 20
670.5026119626085
 30
0.0
 10
192.8437480846671
 20
670.5102825244754
 30
0.0
 10
190.8125156584486
 20
670.5010670650249
 30
0.0
 10
190.0000226936407
 20
670.4973808812704
 30
0.0
  0
SPLINE
  5
D78F
330
D776
100
AcDbEntity
  8
0
  6
Continuous
 62
     7
370
    25
100
AcDbSpline
210
0.0
220
0.0
230
1.0
 70
     8
 71
     3
 72
    50
 73
    46
 74
     0
 42
0.000000001
 43
0.0000000001
 40
0.0
 40
0.0
 40
0.0
 40
0.0
 40
0.0104179078282817
 40
0.0208357902958522
 40
0.0312536185620849
 40
0.0429734817876029
 40
0.0546934479954804
 40
0.0742264722695316
 40
0.0937595358974898
 40
0.1171985545296021
 40
0.140637112692248
 40
0.1562636523015422
 40
0.1718903387193488
 40
0.1836103887873497
 40
0.1953303488545217
 40
0.2148631517110366
 40
0.2343960248127491
 40
0.2578351707988169
 40
0.2812741654792648
 40
0.3281441431117165
 40
0.375014676739472
 40
0.4062653478946326
 40
0.4375160121210188
 40
0.4843862482674862
 40
0.53125673762336
 40
0.5781267930658647
 40
0.6249966130886122
 40
0.6718665105014064
 40
0.7187368079666596
 40
0.7499877044225451
 40
0.7812385156204844
 40
0.8281085512673497
 40
0.8515475703072809
 40
0.8749865606726687
 40
0.8867066206772778
 40
0.8984266375140513
 40
0.9101466097415866
 40
0.9218664983756473
 40
0.9335865477207611
 40
0.9453066673952736
 40
0.9570266951602939
 40
0.9687464969597923
 40
0.9804664671364682
 40
0.9921865640425457
 40
1.0
 40
1.0
 40
1.0
 40
1.0
 10
190.0000226929211
 20
670.4973808812664
 30
0.0
 10
189.6645609577366
 20
670.4936427816735
 30
0.0
 10
188.993638303995
 20
670.4861665915874
 30
0.0
 10
187.9874256763031
 20
670.464045300867
 30
0.0
 10
186.9395805413515
 20
670.4297499676479
 30
0.0
 10
185.8508200089947
 20
670.3696968465702
 30
0.0
 10
184.4712432162586
 20
670.2599479076038
 30
0.0
 10
182.8447527449316
 20
670.0870337859806
 30
0.0
 10
180.8486598150645
 20
669.8268518014154
 30
0.0
 10
178.7373199089239
 20
669.483078575208
 30
0.0
 10
176.7658652302703
 20
669.0741106185802
 30
0.0
 10
175.0543845050168
 20
668.6580415771766
 30
0.0
 10
173.7166349026676
 20
668.3036266917306
 30
0.0
 10
172.5057184639384
 20
667.9624219509128
 30
0.0
 10
171.1811048039647
 20
667.5616925538668
 30
0.0
 10
169.6301221251111
 20
667.0420178917715
 30
0.0
 10
167.7419317167414
 20
666.3442345556588
 30
0.0
 10
165.7602037966947
 20
665.5391420644804
 30
0.0
 10
163.0071071987068
 20
664.2993037185639
 30
0.0
 10
159.6561964613376
 20
662.5565528256138
 30
0.0
 10
156.2276656143668
 20
660.4416311167463
 30
0.0
 10
153.3463119326211
 20
658.4143545270941
 30
0.0
 10
150.569234896114
 20
656.2464781723052
 30
0.0
 10
147.5525325650376
 20
653.5768065834816
 30
0.0
 10
144.385661810063
 20
650.3358973027395
 30
0.0
 10
141.4641543347562
 20
646.8719979970784
 30
0.0
 10
138.8097362624476
 20
643.1994334627021
 30
0.0
 10
136.4380147504652
 20
639.3385102649096
 30
0.0
 10
134.5900683235595
 20
635.7595620988684
 30
0.0
 10
133.1651430904626
 20
632.5382520713223
 30
0.0
 10
131.8940324723551
 20
629.2533213920648
 30
0.0
 10
130.9017659969045
 20
626.1343358443391
 30
0.0
 10
130.1492207146906
 20
623.2110603019057
 30
0.0
 10
129.7496782986107
 20
621.3669311199226
 30
0.0
 10
129.4686398101784
 20
619.8841347577064
 30
0.0
 10
129.2759122944003
 20
618.7687352167604
 30
0.0
 10
129.1031539056179
 20
617.6500266768285
 30
0.0
 10
128.9596469897569
 20
616.5271835984418
 30
0.0
 10
128.8374970482104
 20
615.4018937923416
 30
0.0
 10
128.7283563700898
 20
614.2752807094466
 30
0.0
 10
128.632098718749
 20
613.147492294595
 30
0.0
 10
128.5606132826238
 20
612.0177175130898
 30
0.0
 10
128.5273258701531
 20
610.886238048905
 30
0.0
 10
128.5103651889864
 20
609.8802881430084
 30
0.0
 10
128.505373614359
 20
609.251496057268
 30
0.0
 10
128.5033769786786
 20
608.9999784886434
 30
0.0
  0
SPLINE
  5
D790
330
D776
100
AcDbEntity
  8
0
  6
Continuous
 62
     7
370
    25
100
AcDbSpline
210
0.0
220
0.0
230
1.0
 70
     8
 71
     3
 72
    25
 73
    21
 74
     0
 42
0.000000001
 43
0.0000000001
 40
0.0
 40
0.0
 40
0.0
 40
0.0
 40
0.0058593707547724
 40
0.0117187443343613
 40
0.021484369160633
 40
0.0312499941765627
 40
0.0468749943966283
 40
0.0624999946448861
 40
0.1093749953872006
 40
0.1562499959867944
 40
0.2187499963977292
 40
0.3124999963525363
 40
0.4062499964044878
 40
0.4999999973484175
 40
0.593749998807732
 40
0.6875000002534353
 40
0.7812500000842884
 40
0.8749999960412778
 40
0.9374999977596814
 40
1.0
 40
1.0
 40
1.0
 40
1.0
 10
128.5033769781781
 20
608.9999784124265
 30
0.0
 10
128.5017069301695
 20
608.5768722753282
 30
0.0
 10
128.4983668333471
 20
607.7306597971514
 30
0.0
 10
128.4980793017585
 20
606.1792574121046
 30
0.0
 10
128.49996871811
 20
604.3457856520536
 30
0.0
 10
128.5005185596104
 20
601.807128701081
 30
0.0
 10
128.5002889289377
 20
598.8453615135096
 30
0.0
 10
128.499588998263
 20
593.2038971037983
 30
0.0
 10
128.5001381128044
 20
585.3058393948982
 30
0.0
 10
128.4998401363476
 20
574.0228821777862
 30
0.0
 10
128.5000586486797
 20
559.3550103631881
 30
0.0
 10
128.4995969626169
 20
541.3021938050898
 30
0.0
 10
128.4986437218291
 20
520.9926998530402
 30
0.0
 10
128.5008215550413
 20
500.6831234892481
 30
0.0
 10
128.4977330219169
 20
480.3734526308765
 30
0.0
 10
128.4986963637662
 20
460.0636751430466
 30
0.0
 10
128.4998607120648
 20
439.7537739284037
 30
0.0
 10
128.4999018748546
 20
421.7003932861498
 30
0.0
 10
128.4993018824227
 20
405.9035787690212
 30
0.0
 10
128.4996813887175
 20
396.8767511589231
 30
0.0
 10
128.4998711418658
 20
392.363337335029
 30
0.0
  0
SPLINE
  5
D791
330
D776
100
AcDbEntity
  8
0
  6
Continuous
 62
     7
370
    25
100
AcDbSpline
210
0.0
220
0.0
230
1.0
 70
     8
 71
     3
 72
    27
 73
    23
 74
     0
 42
0.000000001
 43
0.0000000001
 40
0.0
 40
0.0
 40
0.0
 40
0.0
 40
0.062500354955067
 40
0.125000704790539
 40
0.1875010542641833
 40
0.2343763174113172
 40
0.281251581203897
 40
0.3593770221995954
 40
0.4375024622676698
 40
0.5156278980019577
 40
0.5937533282548532
 40
0.6406285894238869
 40
0.6875038504396538
 40
0.7343791097947074
 40
0.7812543668511259
 40
0.8203170826486489
 40
0.859379798164827
 40
0.88542161013272
 40
0.9114634209656023
 40
0.9375052298925245
 40
0.9687526163077975
 40
0.9999999999999999
 40
0.9999999999999999
 40
0.9999999999999999
 40
0.9999999999999999
 10
128.4998711418672
 20
392.363337335026
 30
0.0
 10
128.499237296795
 20
388.5541314213677
 30
0.0
 10
128.4979696067026
 20
380.9357199060746
 30
0.0
 10
128.4950056668609
 20
369.508003202915
 30
0.0
 10
128.497078503616
 20
359.0325191820233
 30
0.0
 10
128.5009212853194
 20
349.509275435262
 30
0.0
 10
128.5001266506183
 20
339.0336226748677
 30
0.0
 10
128.501417458275
 20
326.6531612835367
 30
0.0
 10
128.5000566384433
 20
312.3677524548162
 30
0.0
 10
128.5018488885724
 20
298.0820235518826
 30
0.0
 10
128.5009027370397
 20
285.7007154192557
 30
0.0
 10
128.5018471733479
 20
275.2239525226526
 30
0.0
 10
128.5002911254596
 20
266.651871977618
 30
0.0
 10
128.4996525756561
 20
258.0795960236708
 30
0.0
 10
128.4998626716199
 20
249.9833653189083
 30
0.0
 10
128.5024275648566
 20
242.363221654986
 30
0.0
 10
128.5006829189818
 20
236.0129846311953
 30
0.0
 10
128.5002236502501
 20
230.4564543167124
 30
0.0
 10
128.5040741477605
 20
225.6936727463863
 30
0.0
 10
128.5058832916696
 20
220.6135023161295
 30
0.0
 10
128.5019134212725
 20
215.2159483421468
 30
0.0
 10
128.5015134425225
 20
211.4059967305823
 30
0.0
 10
128.5013134531562
 20
209.5010210078052
 30
0.0
  0
SPLINE
  5
D792
330
D776
100
AcDbEntity
  8
0
  6
Continuous
 62
     7
370
    25
100
AcDbSpline
210
0.0
220
0.0
230
1.0
 70
     8
 71
     3
 72
    14
 73
    10
 74
     0
 42
0.000000001
 43
0.0000000001
 40
0.0
 40
0.0
 40
0.0
 40
0.0
 40
0.1874999822003675
 40
0.3749999629270185
 40
0.56249993773255
 40
0.7187499713618434
 40
0.8749998983234312
 40
0.937499964256613
 40
1.0
 40
1.0
 40
1.0
 40
1.0
 10
128.5013140887625
 20
209.5000039390262
 30
0.0
 10
128.5021398709749
 20
208.2812455585112
 30
0.0
 10
128.5037914353931
 20
205.8437288070605
 30
0.0
 10
128.5035845665163
 20
202.1874590915341
 30
0.0
 10
128.5015160594948
 20
198.7343204565893
 30
0.0
 10
128.4896146336146
 20
195.4843459779361
 30
0.0
 10
128.4877929945374
 20
193.0468494045485
 30
0.0
 10
128.4950097783225
 20
191.2187480108157
 30
0.0
 10
128.5018619108074
 20
190.406283592273
 30
0.0
 10
128.5052879762225
 20
190.0000514811142
 30
0.0
  0
SPLINE
  5
D793
330
D776
100
AcDbEntity
  8
0
  6
Continuous
 62
     7
370
    25
100
AcDbSpline
210
0.0
220
0.0
230
1.0
 70
     8
 71
     3
 72
    45
 73
    41
 74
     0
 42
0.000000001
 43
0.0000000001
 40
0.0
 40
0.0
 40
0.0
 40
0.0
 40
0.0078157344290889
 40
0.0156314524878149
 40
0.0234471902469218
 40
0.0293089840885055
 40
0.0351707744790715
 40
0.0468940160952131
 40
0.0586174349559478
 40
0.070340880549928
 40
0.093786777997485
 40
0.1250467047309834
 40
0.1719306690542743
 40
0.2500386807542875
 40
0.3437435158888418
 40
0.4374478808558784
 40
0.4843316563572857
 40
0.531215527850906
 40
0.6249201343209754
 40
0.7030284436312669
 40
0.7499121814546461
 40
0.7967961740624974
 40
0.8202420912892164
 40
0.8436879713228064
 40
0.8632265516274064
 40
0.8827652609479403
 40
0.892534852380355
 40
0.9023044368453305
 40
0.9101200323715279
 40
0.9179357137274966
 40
0.9335667714621609
 40
0.9452901982212681
 40
0.9570137452755285
 40
0.9628755377692149
 40
0.9667834024389991
 40
0.9687373344569447
 40
0.9697142700164133
 40
0.9726451659514391
 40
0.9804608675985977
 40
1.0
 40
1.0
 40
1.0
 40
1.0
 10
128.5052879762294
 20
190.0000514803992
 30
0.0
 10
128.5082073837082
 20
189.7484955946537
 30
0.0
 10
128.514046192551
 20
189.2453843500564
 30
0.0
 10
128.529509667323
 20
188.4908199911718
 30
0.0
 10
128.5480235707858
 20
187.7992395683038
 30
0.0
 10
128.5691849139776
 20
187.1706693763408
 30
0.0
 10
128.596743395139
 20
186.4164492763966
 30
0.0
 10
128.6567814177326
 20
185.4748273783538
 30
0.0
 10
128.7521561389241
 20
184.3467546325386
 30
0.0
 10
128.9062381062217
 20
182.8451792694847
 30
0.0
 10
129.1835160074268
 20
180.7245068998775
 30
0.0
 10
129.7445779587808
 20
177.5017532763459
 30
0.0
 10
130.9062367612309
 20
172.6039432330562
 30
0.0
 10
133.2018567593266
 20
165.9297646878953
 30
0.0
 10
137.0602163340491
 20
158.2694215881139
 30
0.0
 10
141.4169246240806
 20
152.0776967640157
 30
0.0
 10
145.4168255654438
 20
147.5529224599775
 30
0.0
 10
149.7404971301441
 20
143.336703268448
 30
0.0
 10
155.3116998288087
 20
138.9880505916159
 30
0.0
 10
161.4083464149037
 20
135.4331813214424
 30
0.0
 10
166.4430857505772
 20
133.1290916354912
 30
0.0
 10
169.9836138653935
 20
131.8145670296053
 30
0.0
 10
172.867335634946
 20
130.9209109520961
 30
0.0
 10
174.9323363983914
 20
130.3639500600226
 30
0.0
 10
176.8923178316554
 20
129.9057573264697
 30
0.0
 10
178.4341712951435
 20
129.596721414825
 30
0.0
 10
179.6717226302052
 20
129.3716320503194
 30
0.0
 10
180.5399731740083
 20
129.225058796188
 30
0.0
 10
181.3484490696224
 20
129.1029181795953
 30
0.0
 10
182.3460509034634
 20
128.9708885844204
 30
0.0
 10
183.4707988202555
 20
128.8413105401023
 30
0.0
 10
184.7235082563213
 20
128.7270373880025
 30
0.0
 10
185.664184405831
 20
128.6552989134998
 30
0.0
 10
186.3543338853018
 20
128.6071850031174
 30
0.0
 10
186.7309172458028
 20
128.5830021445324
 30
0.0
 10
186.9505914920895
 20
128.5689274776765
 30
0.0
 10
187.1389842810025
 20
128.5584581430172
 30
0.0
 10
187.5161979469538
 20
128.5470703510023
 30
0.0
 10
188.4905817350879
 20
128.5177536917215
 30
0.0
 10
189.3710953630653
 20
128.5104099155819
 30
0.0
 10
190.0000325493683
 20
128.5051643705327
 30
0.0
  0
SPLINE
  5
D794
330
D776
100
AcDbEntity
  8
0
  6
Continuous
 62
     7
370
    25
100
AcDbSpline
210
0.0
220
0.0
230
1.0
 70
     8
 71
     3
 72
    15
 73
    11
 74
     0
 42
0.000000001
 43
0.0000000001
 40
0.0
 40
0.0
 40
0.0
 40
0.0
 40
0.0937499828005343
 40
0.1874999666038324
 40
0.2812499609480757
 40
0.3749999579636584
 40
0.4687499529752662
 40
0.5624999564947627
 40
0.8749999710184555
 40
1.0
 40
1.0
 40
1.0
 40
1.0
 10
190.0000326264885
 20
128.5051643700153
 30
0.0
 10
190.6093922263004
 20
128.5018228741475
 30
0.0
 10
191.828111432442
 20
128.4951398823763
 30
0.0
 10
193.6562252925464
 20
128.4931313514534
 30
0.0
 10
195.4843396591731
 20
128.4944231314369
 30
0.0
 10
197.3124564946333
 20
128.4977002527988
 30
0.0
 10
199.1405787848519
 20
128.5002839562341
 30
0.0
 10
202.3905837066107
 20
128.5005314279284
 30
0.0
 10
205.8437264912705
 20
128.5006442826016
 30
0.0
 10
208.687493557339
 20
128.5001432897265
 30
0.0
 10
209.4999985409437
 20
128.500000148886
 30
0.0
  0
CIRCLE
  5
D795
330
D776
100
AcDbEntity
  8
0
  6
Continuous
 62
     7
370
    25
100
AcDbCircle
 10
209.4999985201431
 20
209.5000001885086
 30
0.0
 40
45.0
  0
ENDBLK
  5
D797
330
D776
100
AcDbEntity
  8
0
100
AcDbBlockEnd
  0
BLOCK
  5
1013318
330
1013313
100
AcDbEntity
  8
0
100
AcDbBlockBegin
  2
A$C2FFA6D54
 70
     0
 10
0.0
 20
0.0
 30
0.0
  3
A$C2FFA6D54
  1

  0
LINE
  5
1013314
330
1013313
100
AcDbEntity
  8
mittellinien_aktuell
 48
0.3
100
AcDbLine
 10
-78.92893218813697
 20
0.0
 30
0.0
 11
78.92893218813697
 21
0.0
 31
0.0
  0
LINE
  5
1013315
330
1013313
100
AcDbEntity
  8
mittellinien_aktuell
 48
0.3
100
AcDbLine
 10
0.0
 20
78.92893218813333
 30
0.0
 11
0.0
 21
-78.92893218813333
 31
0.0
  0
ENDBLK
  5
1013319
330
1013313
100
AcDbEntity
  8
0
100
AcDbBlockEnd
  0
BLOCK
  5
101352F
330
101352B
100
AcDbEntity
  8
0
100
AcDbBlockBegin
  2
A$C112A0DE8
 70
     0
 10
0.0
 20
0.0
 30
0.0
  3
A$C112A0DE8
  1

  0
SPLINE
  5
101352C
330
101352B
100
AcDbEntity
  8
0
  6
Continuous
 62
     7
370
    25
100
AcDbSpline
210
0.0
220
0.0
230
1.0
 70
    11
 71
     3
 72
   384
 73
   380
 74
     0
 42
0.000000001
 43
0.0000000001
 40
0.0
 40
0.0
 40
0.0
 40
0.0
 40
0.0039062499999996
 40
0.0039062499999996
 40
0.0048828124999995
 40
0.0048828124999995
 40
0.0058593749999994
 40
0.0058593749999994
 40
0.0068359374999993
 40
0.0068359374999993
 40
0.0078124999999993
 40
0.0078124999999993
 40
0.0097656249999991
 40
0.0097656249999991
 40
0.0117187499999989
 40
0.0117187499999989
 40
0.0156249999999985
 40
0.0156249999999985
 40
0.0166015624999984
 40
0.0166015624999984
 40
0.0175781249999983
 40
0.0175781249999983
 40
0.0195312499999981
 40
0.0195312499999981
 40
0.0234374999999977
 40
0.0234374999999977
 40
0.0273437499999974
 40
0.0273437499999974
 40
0.0292968749999972
 40
0.0292968749999972
 40
0.031249999999997
 40
0.031249999999997
 40
0.0390624999999962
 40
0.0390624999999962
 40
0.0429687499999958
 40
0.0429687499999958
 40
0.0439453124999957
 40
0.0439453124999957
 40
0.0449218749999956
 40
0.0449218749999956
 40
0.0468749999999955
 40
0.0468749999999955
 40
0.0507812499999951
 40
0.0507812499999951
 40
0.0546874999999947
 40
0.0546874999999947
 40
0.0566406249999945
 40
0.0566406249999945
 40
0.0585937499999943
 40
0.0585937499999943
 40
0.0595703124999942
 40
0.0595703124999942
 40
0.0605468749999941
 40
0.0605468749999941
 40
0.0624999999999939
 40
0.0624999999999939
 40
0.0644531249999937
 40
0.0644531249999937
 40
0.0664062499999935
 40
0.0664062499999935
 40
0.0683593749999934
 40
0.0683593749999934
 40
0.0703124999999932
 40
0.0703124999999932
 40
0.072265624999993
 40
0.072265624999993
 40
0.0742187499999928
 40
0.0742187499999928
 40
0.0761718749999926
 40
0.0761718749999926
 40
0.0781249999999924
 40
0.0781249999999924
 40
0.082031249999992
 40
0.082031249999992
 40
0.0859374999999917
 40
0.0859374999999917
 40
0.0937499999999909
 40
0.0937499999999909
 40
0.1093749999999894
 40
0.1093749999999894
 40
0.1249999999999879
 40
0.1249999999999879
 40
0.1562499999999848
 40
0.1562499999999848
 40
0.1874999999999818
 40
0.1874999999999818
 40
0.2187499999999788
 40
0.2187499999999788
 40
0.2343749999999772
 40
0.2343749999999772
 40
0.2421874999999764
 40
0.2421874999999764
 40
0.2460937499999761
 40
0.2460937499999761
 40
0.2499999999999757
 40
0.2499999999999757
 40
0.2539062499999754
 40
0.2539062499999754
 40
0.2558593749999752
 40
0.2558593749999752
 40
0.2568359374999751
 40
0.2568359374999751
 40
0.2578124999999751
 40
0.2578124999999751
 40
0.2597656249999751
 40
0.2597656249999751
 40
0.2617187499999752
 40
0.2617187499999752
 40
0.2656249999999753
 40
0.2656249999999753
 40
0.2695312499999754
 40
0.2695312499999754
 40
0.2734374999999756
 40
0.2734374999999756
 40
0.2753906249999755
 40
0.2753906249999755
 40
0.2773437499999755
 40
0.2773437499999755
 40
0.2812499999999756
 40
0.2812499999999756
 40
0.2851562499999757
 40
0.2851562499999757
 40
0.2871093749999757
 40
0.2871093749999757
 40
0.2880859374999757
 40
0.2880859374999757
 40
0.2890624999999757
 40
0.2890624999999757
 40
0.2929687499999759
 40
0.2929687499999759
 40
0.2968749999999761
 40
0.2968749999999761
 40
0.3007812499999763
 40
0.3007812499999763
 40
0.3027343749999764
 40
0.3027343749999764
 40
0.3037109374999765
 40
0.3037109374999765
 40
0.3046874999999765
 40
0.3046874999999765
 40
0.3124999999999765
 40
0.3124999999999765
 40
0.3144531249999766
 40
0.3144531249999766
 40
0.3164062499999766
 40
0.3164062499999766
 40
0.3183593749999766
 40
0.3183593749999766
 40
0.3203124999999767
 40
0.3203124999999767
 40
0.3212890624999767
 40
0.3212890624999767
 40
0.3222656249999767
 40
0.3222656249999767
 40
0.3242187499999767
 40
0.3242187499999767
 40
0.3261718749999768
 40
0.3261718749999768
 40
0.3281249999999769
 40
0.3281249999999769
 40
0.3300781249999769
 40
0.3300781249999769
 40
0.3320312499999769
 40
0.3320312499999769
 40
0.3359374999999769
 40
0.3359374999999769
 40
0.343749999999977
 40
0.343749999999977
 40
0.3749999999999771
 40
0.3749999999999771
 40
0.4374999999999775
 40
0.4374999999999775
 40
0.4687499999999777
 40
0.4687499999999777
 40
0.4843749999999778
 40
0.4843749999999778
 40
0.4921874999999779
 40
0.4921874999999779
 40
0.496093749999978
 40
0.496093749999978
 40
0.499999999999978
 40
0.499999999999978
 40
0.501953124999978
 40
0.501953124999978
 40
0.5039062499999781
 40
0.5039062499999781
 40
0.5058593749999781
 40
0.5058593749999781
 40
0.5078124999999781
 40
0.5078124999999781
 40
0.5097656249999781
 40
0.5097656249999781
 40
0.511718749999978
 40
0.511718749999978
 40
0.515624999999978
 40
0.515624999999978
 40
0.516601562499978
 40
0.516601562499978
 40
0.517578124999978
 40
0.517578124999978
 40
0.5195312499999781
 40
0.5195312499999781
 40
0.5214843749999784
 40
0.5214843749999784
 40
0.5234374999999785
 40
0.5234374999999785
 40
0.5312499999999788
 40
0.5312499999999788
 40
0.5332031249999789
 40
0.5332031249999789
 40
0.5351562499999791
 40
0.5351562499999791
 40
0.5390624999999791
 40
0.5390624999999791
 40
0.5429687499999792
 40
0.5429687499999792
 40
0.5449218749999792
 40
0.5449218749999792
 40
0.5458984374999793
 40
0.5458984374999793
 40
0.5468749999999793
 40
0.5468749999999793
 40
0.5507812499999796
 40
0.5507812499999796
 40
0.5546874999999799
 40
0.5546874999999799
 40
0.5585937499999802
 40
0.5585937499999802
 40
0.5605468749999803
 40
0.5605468749999803
 40
0.5624999999999805
 40
0.5624999999999805
 40
0.5644531249999807
 40
0.5644531249999807
 40
0.5664062499999808
 40
0.5664062499999808
 40
0.5703124999999812
 40
0.5703124999999812
 40
0.5722656249999813
 40
0.5722656249999813
 40
0.5742187499999815
 40
0.5742187499999815
 40
0.5761718749999816
 40
0.5761718749999816
 40
0.5781249999999819
 40
0.5781249999999819
 40
0.5820312499999822
 40
0.5820312499999822
 40
0.5859374999999827
 40
0.5859374999999827
 40
0.5898437499999831
 40
0.5898437499999831
 40
0.5937499999999835
 40
0.5937499999999835
 40
0.6015624999999842
 40
0.6015624999999842
 40
0.6093749999999849
 40
0.6093749999999849
 40
0.6249999999999862
 40
0.6249999999999862
 40
0.6874999999999919
 40
0.6874999999999919
 40
0.7187499999999947
 40
0.7187499999999947
 40
0.734374999999996
 40
0.734374999999996
 40
0.7421874999999968
 40
0.7421874999999968
 40
0.7499999999999974
 40
0.7499999999999974
 40
0.7519531249999976
 40
0.7519531249999976
 40
0.7539062499999978
 40
0.7539062499999978
 40
0.7548828124999979
 40
0.7548828124999979
 40
0.755859374999998
 40
0.755859374999998
 40
0.7568359374999981
 40
0.7568359374999981
 40
0.7578124999999982
 40
0.7578124999999982
 40
0.7597656249999984
 40
0.7597656249999984
 40
0.7617187499999986
 40
0.7617187499999986
 40
0.7636718749999987
 40
0.7636718749999987
 40
0.7656249999999989
 40
0.7656249999999989
 40
0.7695312499999991
 40
0.7695312499999991
 40
0.7714843749999993
 40
0.7714843749999993
 40
0.7734374999999994
 40
0.7734374999999994
 40
0.7753906249999996
 40
0.7753906249999996
 40
0.7773437499999997
 40
0.7773437499999997
 40
0.7812500000000001
 40
0.7812500000000001
 40
0.7851562500000006
 40
0.7851562500000006
 40
0.7871093750000007
 40
0.7871093750000007
 40
0.7880859375000008
 40
0.7880859375000008
 40
0.7890625000000009
 40
0.7890625000000009
 40
0.7929687500000013
 40
0.7929687500000013
 40
0.7968750000000018
 40
0.7968750000000018
 40
0.8007812500000021
 40
0.8007812500000021
 40
0.8027343750000024
 40
0.8027343750000024
 40
0.8037109375000026
 40
0.8037109375000026
 40
0.8046875000000027
 40
0.8046875000000027
 40
0.8085937500000031
 40
0.8085937500000031
 40
0.8125000000000034
 40
0.8125000000000034
 40
0.8164062500000039
 40
0.8164062500000039
 40
0.8173828125000039
 40
0.8173828125000039
 40
0.8183593750000039
 40
0.8183593750000039
 40
0.8203125000000041
 40
0.8203125000000041
 40
0.8222656250000042
 40
0.8222656250000042
 40
0.8242187500000043
 40
0.8242187500000043
 40
0.8261718750000043
 40
0.8261718750000043
 40
0.8281250000000044
 40
0.8281250000000044
 40
0.8320312500000043
 40
0.8320312500000043
 40
0.8359375000000043
 40
0.8359375000000043
 40
0.8398437500000043
 40
0.8398437500000043
 40
0.8437500000000042
 40
0.8437500000000042
 40
0.8515625000000041
 40
0.8515625000000041
 40
0.8593750000000039
 40
0.8593750000000039
 40
0.8750000000000034
 40
0.8750000000000034
 40
0.9062500000000027
 40
0.9062500000000027
 40
0.9375000000000018
 40
0.9375000000000018
 40
0.9531250000000012
 40
0.9531250000000012
 40
0.9687500000000008
 40
0.9687500000000008
 40
0.9765625000000006
 40
0.9765625000000006
 40
0.9843750000000003
 40
0.9843750000000003
 40
0.9921875000000002
 40
0.9921875000000002
 40
0.99609375
 40
0.99609375
 40
0.998046875
 40
0.9990234375
 40
0.9995117187499999
 40
0.9997558593749999
 40
0.9998779296874999
 40
0.9998779296874999
 40
1.0
 40
1.0
 40
1.0
 40
1.0
 10
-136.1741564646654
 20
0.0009271790131606
 30
0.0
 10
-136.1733685109066
 20
-3.678001504188614
 30
0.0
 10
-136.1796951912111
 20
-7.357330558160356
 30
0.0
 10
-136.2000187031226
 20
-11.95719280134472
 30
0.0
 10
-136.206143908028
 20
-12.87728152099498
 30
0.0
 10
-136.2190395238285
 20
-14.7174956488625
 30
0.0
 10
-136.2225860996114
 20
-15.63743902029819
 30
0.0
 10
-136.2329290515336
 20
-17.47750729796371
 30
0.0
 10
-136.2411229925347
 20
-18.39771278743137
 30
0.0
 10
-136.2423801664263
 20
-20.23726918975353
 30
0.0
 10
-136.2353185582906
 20
-21.15661283629197
 30
0.0
 10
-136.184067181166
 20
-23.91294265476972
 30
0.0
 10
-136.109691892314
 20
-25.74822116255837
 30
0.0
 10
-135.8701007719501
 20
-29.41363996542714
 30
0.0
 10
-135.7082615407999
 20
-31.24397127714929
 30
0.0
 10
-135.1055911314616
 20
-36.7283385416722
 30
0.0
 10
-134.5465684383234
 20
-40.37568774155989
 30
0.0
 10
-133.6119121936499
 20
-44.92153321706246
 30
0.0
 10
-133.4132689440739
 20
-45.8295542374608
 30
0.0
 10
-132.9946331575047
 20
-47.63457014977212
 30
0.0
 10
-132.7744382271194
 20
-48.53277497320414
 30
0.0
 10
-132.081781457935
 20
-51.21470117649551
 30
0.0
 10
-131.5771840489761
 20
-52.9857091427366
 30
0.0
 10
-129.93540371157
 20
-58.24809918705796
 30
0.0
 10
-128.6695886077359
 20
-61.68859266307572
 30
0.0
 10
-125.8228500227851
 20
-68.44491718031895
 30
0.0
 10
-124.2430420796736
 20
-71.76119001763163
 30
0.0
 10
-121.6296614158491
 20
-76.63920024368872
 30
0.0
 10
-120.7179130332952
 20
-78.24913315568938
 30
0.0
 10
-118.8112849845202
 20
-81.43611094648531
 30
0.0
 10
-117.8213209283131
 20
-83.00469366017751
 30
0.0
 10
-112.7089079472935
 20
-90.69111518617137
 30
0.0
 10
-108.0839209852275
 20
-96.37307888880423
 30
0.0
 10
-100.3654923484719
 20
-104.2141557876794
 30
0.0
 10
-97.66279048513388
 20
-106.714435303461
 30
0.0
 10
-94.11547291078023
 20
-109.6922780312025
 30
0.0
 10
-93.39655972036417
 20
-110.2812198990623
 30
0.0
 10
-91.94905206593103
 20
-111.4383584433263
 30
0.0
 10
-91.21997560051386
 20
-112.0070015141728
 30
0.0
 10
-89.0170057042269
 20
-113.6835762242572
 30
0.0
 10
-87.52738620093442
 20
-114.7621802660215
 30
0.0
 10
-82.99688323764713
 20
-117.8830314737115
 30
0.0
 10
-79.89414401852991
 20
-119.8099237678407
 30
0.0
 10
-73.52345028243144
 20
-123.3555982219368
 30
0.0
 10
-70.25769128536922
 20
-124.9784743479686
 30
0.0
 10
-65.2377805953729
 20
-127.1866281805642
 30
0.0
 10
-63.54428726801416
 20
-127.8850275868663
 30
0.0
 10
-60.11721950231004
 20
-129.2070788604533
 30
0.0
 10
-58.38363105029566
 20
-129.8307045414713
 30
0.0
 10
-55.74956089287298
 20
-130.7033193607413
 30
0.0
 10
-54.86478609291953
 20
-130.9840122900805
 30
0.0
 10
-53.08857589567197
 20
-131.5216538032682
 30
0.0
 10
-52.19890463881893
 20
-131.7780212535208
 30
0.0
 10
-49.52539670208353
 20
-132.5113865900021
 30
0.0
 10
-47.73702786013018
 20
-132.9523449643657
 30
0.0
 10
-44.15010801370954
 20
-133.7532950006853
 30
0.0
 10
-42.35145332693355
 20
-134.1124630849545
 30
0.0
 10
-38.74289555268479
 20
-134.7413547500491
 30
0.0
 10
-36.93278897868004
 20
-135.009458936699
 30
0.0
 10
-33.3030987312668
 20
-135.4703090047597
 30
0.0
 10
-31.4837525714247
 20
-135.6649437253818
 30
0.0
 10
-27.83552845625672
 20
-135.9784216715607
 30
0.0
 10
-26.00628258261713
 20
-136.0943392181525
 30
0.0
 10
-22.33453295638901
 20
-136.2207419951628
 30
0.0
 10
-20.49254308186937
 20
-136.2353168859636
 30
0.0
 10
-16.80557097241399
 20
-136.2406650329485
 30
0.0
 10
-14.96046388833201
 20
-136.2313541011481
 30
0.0
 10
-11.26944662944879
 20
-136.2022763636123
 30
0.0
 10
-9.423930198681774
 20
-136.1855270200822
 30
0.0
 10
-5.732970214186935
 20
-136.1729470483097
 30
0.0
 10
-3.887512901012087
 20
-136.1731728733248
 30
0.0
 10
1.648846374708228
 20
-136.1772482449842
 30
0.0
 10
5.339757403620752
 20
-136.1779431333853
 30
0.0
 10
12.72148361161817
 20
-136.2061354595426
 30
0.0
 10
16.41233129290049
 20
-136.2242864434875
 30
0.0
 10
27.48478241980774
 20
-136.3044753031108
 30
0.0
 10
34.86639452076633
 20
-136.3838599032988
 30
0.0
 10
57.0103709512041
 20
-136.6663622640253
 30
0.0
 10
71.77206379940617
 20
-136.9100017755636
 30
0.0
 10
101.2951131371374
 20
-137.4164415617679
 30
0.0
 10
116.056436939456
 20
-137.6810530389685
 30
0.0
 10
160.3404493089765
 20
-138.4719449965032
 30
0.0
 10
189.8631856606808
 20
-138.9947368025241
 30
0.0
 10
248.9096683681128
 20
-139.9809947584308
 30
0.0
 10
278.4333781064779
 20
-140.4465040911655
 30
0.0
 10
337.4818781855283
 20
-141.3139315101598
 30
0.0
 10
367.006605296483
 20
-141.7168326481133
 30
0.0
 10
411.2943121928838
 20
-142.2737228164742
 30
0.0
 10
426.0569815424387
 20
-142.4543261448744
 30
0.0
 10
448.201030799537
 20
-142.7093017386469
 30
0.0
 10
455.5824054710683
 20
-142.788482192931
 30
0.0
 10
466.6544543363852
 20
-142.9099684111188
 30
0.0
 10
470.3451257913548
 20
-142.9534892562524
 30
0.0
 10
477.7264813464717
 20
-143.0393052845056
 30
0.0
 10
481.4171627603646
 20
-143.0799044538335
 30
0.0
 10
488.7985225242446
 20
-143.163290916671
 30
0.0
 10
492.4892114308022
 20
-143.2058480772657
 30
0.0
 10
498.0254414549563
 20
-143.2243110040627
 30
0.0
 10
499.870876079076
 20
-143.2253724836673
 30
0.0
 10
502.6392970927409
 20
-143.1727493959943
 30
0.0
 10
503.5621472210041
 20
-143.1462780663469
 30
0.0
 10
505.4079567664012
 20
-143.0705375680791
 30
0.0
 10
506.3309133217845
 20
-143.0214170266518
 30
0.0
 10
509.0999116800085
 20
-142.8452334195508
 30
0.0
 10
510.9485169083055
 20
-142.6897400685839
 30
0.0
 10
514.6212196898123
 20
-142.3047227628294
 30
0.0
 10
516.4476069815864
 20
-142.0738779740595
 30
0.0
 10
521.8945283228531
 20
-141.2572957251959
 30
0.0
 10
525.4831563978805
 20
-140.5487999414891
 30
0.0
 10
532.5758756542346
 20
-138.8065475740059
 30
0.0
 10
536.0802842413832
 20
-137.7740124575648
 30
0.0
 10
543.0026177014224
 20
-135.3761901613143
 30
0.0
 10
546.4214763178898
 20
-134.0144999388076
 30
0.0
 10
551.4857962008391
 20
-131.7258462102509
 30
0.0
 10
553.1538353711949
 20
-130.9259679903571
 30
0.0
 10
556.4407125170983
 20
-129.2607732348879
 30
0.0
 10
558.0613080639159
 20
-128.3945487821929
 30
0.0
 10
562.855627974408
 20
-125.696557812882
 30
0.0
 10
565.9621052447474
 20
-123.7657969842639
 30
0.0
 10
571.9949344728666
 20
-119.6391122820678
 30
0.0
 10
574.9213134132733
 20
-117.4432283305869
 30
0.0
 10
579.1718155562703
 20
-113.9446829081526
 30
0.0
 10
580.5654168277106
 20
-112.7443001146767
 30
0.0
 10
582.6199393956049
 20
-110.8909078496745
 30
0.0
 10
583.2987965054926
 20
-110.264301738207
 30
0.0
 10
584.6443227680866
 20
-108.9931475686853
 30
0.0
 10
585.3115676619636
 20
-108.348001941622
 30
0.0
 10
588.6008505418431
 20
-105.0936381557776
 30
0.0
 10
591.0938620347297
 20
-102.3879343049293
 30
0.0
 10
595.8178319659783
 20
-96.78301294885932
 30
0.0
 10
598.0500955877069
 20
-93.88475921744339
 30
0.0
 10
602.2639125064015
 20
-87.90311462496174
 30
0.0
 10
604.2441606171487
 20
-84.81876047247079
 30
0.0
 10
607.0234813318821
 20
-80.05114713586045
 30
0.0
 10
607.9179252932372
 20
-78.43831494300684
 30
0.0
 10
609.2082634112448
 20
-75.98116325345836
 30
0.0
 10
609.6302347960882
 20
-75.15490868146298
 30
0.0
 10
610.4525304714043
 20
-73.49751156392176
 30
0.0
 10
610.8532676833856
 20
-72.66563020316244
 30
0.0
 10
614.3655962623598
 20
-65.1498660324487
 30
0.0
 10
616.8100897309778
 20
-58.26203386184898
 30
0.0
 10
619.0473982473486
 20
-49.40206522827066
 30
0.0
 10
619.4557271852391
 20
-47.61810759977379
 30
0.0
 10
620.1997710639844
 20
-44.02799236557712
 30
0.0
 10
620.5348160727881
 20
-42.22162994193513
 30
0.0
 10
621.1272091104474
 20
-38.58515109983364
 30
0.0
 10
621.3861739274871
 20
-36.75237944403125
 30
0.0
 10
621.8377398792363
 20
-33.08284395373994
 30
0.0
 10
622.032367479871
 20
-31.24784880900097
 30
0.0
 10
622.2653402890719
 20
-28.49492566830759
 30
0.0
 10
622.3329040732642
 20
-27.5772109383779
 30
0.0
 10
622.4436212306027
 20
-25.74160317887709
 30
0.0
 10
622.4858501995623
 20
-24.82370333949348
 30
0.0
 10
622.5804019235366
 20
-22.06976902812858
 30
0.0
 10
622.6009397425805
 20
-20.23350247884537
 30
0.0
 10
622.6242198010732
 20
-16.56083934164781
 30
0.0
 10
622.6215967138996
 20
-14.72440344214374
 30
0.0
 10
622.6056968356424
 20
-11.05145274528059
 30
0.0
 10
622.5973425339325
 20
-9.214974428111418
 30
0.0
 10
622.5961825412523
 20
-5.542132187787502
 30
0.0
 10
622.5996428406797
 20
-3.705740742744638
 30
0.0
 10
622.6050310920109
 20
-0.0329465360509857
 30
0.0
 10
622.605656197411
 20
1.803465808405235
 30
0.0
 10
622.6028040332021
 20
7.312737574914536
 30
0.0
 10
622.6082706109155
 20
10.98553109734166
 30
0.0
 10
622.605821065139
 20
22.0040498416729
 30
0.0
 10
622.6096288314147
 20
29.34968846873653
 30
0.0
 10
622.6367993723834
 20
66.07782191302431
 30
0.0
 10
622.6777217589843
 20
95.46018332738913
 30
0.0
 10
622.8654059889668
 20
183.6067782198706
 30
0.0
 10
623.0702699986869
 20
242.3707072817697
 30
0.0
 10
623.421626999072
 20
330.5164601331908
 30
0.0
 10
623.546570362203
 20
359.8983470600533
 30
0.0
 10
623.7350977113238
 20
403.9712225850553
 30
0.0
 10
623.7974793637986
 20
418.6621720237326
 30
0.0
 10
623.8952771426411
 20
440.6986456684936
 30
0.0
 10
623.9261480386776
 20
448.0441157913901
 30
0.0
 10
623.9670012667484
 20
459.0622516487856
 30
0.0
 10
623.9802817180462
 20
462.7349589062751
 30
0.0
 10
624.0125014191144
 20
470.0804424134603
 30
0.0
 10
624.0330734313466
 20
473.7532389147555
 30
0.0
 10
624.0620440744387
 20
479.2624111232217
 30
0.0
 10
624.0712913950265
 20
481.0987952566547
 30
0.0
 10
624.092338256014
 20
484.7715947774277
 30
0.0
 10
624.1025830082071
 20
486.6079933999672
 30
0.0
 10
624.1168727583427
 20
490.280717504178
 30
0.0
 10
624.1237297895423
 20
492.1170739650734
 30
0.0
 10
624.1296025144402
 20
495.7896956300292
 30
0.0
 10
624.1276676703419
 20
497.6259467338687
 30
0.0
 10
624.0875846068375
 20
501.2980157839584
 30
0.0
 10
624.0442974096804
 20
503.1337722173366
 30
0.0
 10
623.8698208652495
 20
506.8042255637001
 30
0.0
 10
623.7404197924479
 20
508.6389411344326
 30
0.0
 10
623.2477149986371
 20
514.1418171657688
 30
0.0
 10
622.7778122510063
 20
517.8086850597174
 30
0.0
 10
621.9757503795263
 20
522.3896695433368
 30
0.0
 10
621.804403887887
 20
523.3057340407413
 30
0.0
 10
621.4389477954537
 20
525.13758762001
 30
0.0
 10
621.2445513456769
 20
526.0546044159082
 30
0.0
 10
620.6293931718683
 20
528.7958749522395
 30
0.0
 10
620.1785460154642
 20
530.607057996318
 30
0.0
 10
619.1986360699811
 20
534.1980726738757
 30
0.0
 10
618.6689511553559
 20
535.9776549652461
 30
0.0
 10
617.5258595524065
 20
539.5032613101348
 30
0.0
 10
616.9128066184057
 20
541.2494271303076
 30
0.0
 10
613.6514352613594
 20
549.9016500376247
 30
0.0
 10
610.4190457579971
 20
556.573592120194
 30
0.0
 10
605.6215024158882
 20
564.6100657868456
 30
0.0
 10
604.6278459822934
 20
566.1948219844935
 30
0.0
 10
602.5810224779125
 20
569.3070079494655
 30
0.0
 10
601.526613499329
 20
570.8364769905038
 30
0.0
 10
598.2710515672807
 20
575.3455763222455
 30
0.0
 10
595.9779617878085
 20
578.2462408122437
 30
0.0
 10
591.1441425794328
 20
583.8348687461503
 30
0.0
 10
588.6032112309767
 20
586.522658760452
 30
0.0
 10
584.5977642990183
 20
590.3876717719986
 30
0.0
 10
583.2304212721938
 20
591.648357549936
 30
0.0
 10
581.1306267908949
 20
593.4974884866451
 30
0.0
 10
580.4225508462987
 20
594.1068700908745
 30
0.0
 10
578.9900956199563
 20
595.311630140166
 30
0.0
 10
578.2654999714287
 20
595.9071504993826
 30
0.0
 10
574.6207344976137
 20
598.8349977419912
 30
0.0
 10
571.6210150240222
 20
601.0311751260133
 30
0.0
 10
565.4639702281565
 20
605.149104185738
 30
0.0
 10
562.3064987842226
 20
607.0706014701627
 30
0.0
 10
555.831031000911
 20
610.6340877022358
 30
0.0
 10
552.5115012634487
 20
612.2734065740497
 30
0.0
 10
547.403687965154
 20
614.5086057303697
 30
0.0
 10
545.6796935386083
 20
615.2164274679953
 30
0.0
 10
542.1876254103263
 20
616.5553193005462
 30
0.0
 10
540.4176800314453
 20
617.1867289999882
 30
0.0
 10
536.8715181570442
 20
618.3578455199531
 30
0.0
 10
535.0907461962197
 20
618.8996344994384
 30
0.0
 10
531.5136290540104
 20
619.8945861311959
 30
0.0
 10
529.7170288739435
 20
620.3462966026336
 30
0.0
 10
524.3057439911354
 20
621.579159666594
 30
0.0
 10
520.6714676867705
 20
622.2488239802815
 30
0.0
 10
515.1792756040813
 20
623.0212581447786
 30
0.0
 10
513.3419739079836
 20
623.2413407612485
 30
0.0
 10
509.6548520407523
 20
623.6102665695153
 30
0.0
 10
507.8049866312649
 20
623.7588530824114
 30
0.0
 10
504.0914205471054
 20
623.9772946736193
 30
0.0
 10
502.2270655558677
 20
624.0434259297936
 30
0.0
 10
498.4873176881229
 20
624.1128507367239
 30
0.0
 10
496.6152454791882
 20
624.1208895057816
 30
0.0
 10
491.0021114678239
 20
624.1400127555007
 30
0.0
 10
487.2601095644641
 20
624.1267565547114
 30
0.0
 10
479.7761426360812
 20
624.0971517488551
 30
0.0
 10
476.0341749999498
 20
624.0785846971794
 30
0.0
 10
468.550298277667
 20
624.0247989887539
 30
0.0
 10
464.8083696597314
 20
623.9955529911122
 30
0.0
 10
457.3244515629485
 20
623.9531426503918
 30
0.0
 10
453.5824750555912
 20
623.9366792680803
 30
0.0
 10
442.3565233262489
 20
623.8928665256935
 30
0.0
 10
434.8725318365905
 20
623.869200725755
 30
0.0
 10
419.9046135988319
 20
623.8041454888207
 30
0.0
 10
412.4206581172475
 20
623.7707609363633
 30
0.0
 10
389.9687708392739
 20
623.6752299023337
 30
0.0
 10
375.0008462187252
 20
623.6107373765944
 30
0.0
 10
300.1611856609816
 20
623.2943967145484
 30
0.0
 10
240.2893378207227
 20
623.0543222068
 30
0.0
 10
150.4811369543313
 20
622.7939550071023
 30
0.0
 10
120.5450144061761
 20
622.7239531736795
 30
0.0
 10
75.6407502371585
 20
622.6526817735639
 30
0.0
 10
60.6726480780053
 20
622.634337891579
 30
0.0
 10
38.22047090312117
 20
622.6160919272679
 30
0.0
 10
30.73640989998239
 20
622.6106892287626
 30
0.0
 10
15.76827577041695
 20
622.6047235795904
 30
0.0
 10
8.284195589309093
 20
622.6070990298449
 30
0.0
 10
-1.070888695045142
 20
622.6032381094828
 30
0.0
 10
-2.941900354460813
 20
622.6002927526997
 30
0.0
 10
-6.683939318289049
 20
622.6009291547816
 30
0.0
 10
-8.554968387266854
 20
622.6052414731003
 30
0.0
 10
-11.36149982208735
 20
622.6065983783938
 30
0.0
 10
-12.29700833040988
 20
622.6062242193975
 30
0.0
 10
-14.16803188074846
 20
622.6081893076052
 30
0.0
 10
-15.10354929961613
 20
622.6115089630675
 30
0.0
 10
-16.97458747899509
 20
622.619721581179
 30
0.0
 10
-17.91010322727379
 20
622.6224935366008
 30
0.0
 10
-19.78110047543305
 20
622.6134949733805
 30
0.0
 10
-20.71658262662822
 20
622.6019774513115
 30
0.0
 10
-23.52297113876557
 20
622.5424002998661
 30
0.0
 10
-25.39559633051977
 20
622.4700352636701
 30
0.0
 10
-29.13283790825517
 20
622.2388713239297
 30
0.0
 10
-30.99170152746956
 20
622.0802100167621
 30
0.0
 10
-34.69286932997056
 20
621.6897747432504
 30
0.0
 10
-36.53514785936568
 20
621.4578875102097
 30
0.0
 10
-40.20357013275498
 20
620.9228750092434
 30
0.0
 10
-42.02974888906465
 20
620.6199042957942
 30
0.0
 10
-47.47957226884319
 20
619.5842203615666
 30
0.0
 10
-51.07293182262219
 20
618.7177946228139
 30
0.0
 10
-56.40659376766416
 20
617.1692405428012
 30
0.0
 10
-58.17471858343924
 20
616.6099529012163
 30
0.0
 10
-61.69044038417633
 20
615.4007444816152
 30
0.0
 10
-63.43817611449049
 20
614.7514362380725
 30
0.0
 10
-66.91455575855798
 20
613.3685263745147
 30
0.0
 10
-68.64501937542809
 20
612.633904679109
 30
0.0
 10
-72.05316003988264
 20
611.0979080029965
 30
0.0
 10
-73.73517221401562
 20
610.2949871326191
 30
0.0
 10
-78.71518729926902
 20
607.7816993015294
 30
0.0
 10
-81.94729961871053
 20
605.9670142050236
 30
0.0
 10
-88.23744964142679
 20
602.0620484126284
 30
0.0
 10
-91.29524074489018
 20
599.9713772134328
 30
0.0
 10
-95.74524416498025
 20
596.6189734638992
 30
0.0
 10
-97.20586654476938
 20
595.4655477545411
 30
0.0
 10
-99.36213557573501
 20
593.6805283300437
 30
0.0
 10
-100.0751128839038
 20
593.0763724923991
 30
0.0
 10
-101.4893898507871
 20
591.8495727820655
 30
0.0
 10
-102.1915115091833
 20
591.2261757764227
 30
0.0
 10
-105.6621935600997
 20
588.071951804236
 30
0.0
 10
-108.3014125908667
 20
585.4396387530205
 30
0.0
 10
-113.3198922842275
 20
579.968800607312
 30
0.0
 10
-115.6989379622974
 20
577.1301049760714
 30
0.0
 10
-120.1971657201648
 20
571.2465770849522
 30
0.0
 10
-122.3160285693593
 20
568.2014916199942
 30
0.0
 10
-125.2936403319181
 20
563.4746723175986
 30
0.0
 10
-126.2527802937839
 20
561.872573498129
 30
0.0
 10
-127.6404341332673
 20
559.4289250263591
 30
0.0
 10
-128.0950244108099
 20
558.6065854841418
 30
0.0
 10
-128.9833573157666
 20
556.9554277340349
 30
0.0
 10
-129.41731410395
 20
556.1262951580866
 30
0.0
 10
-131.5367769750883
 20
551.963116886579
 30
0.0
 10
-133.0715811455157
 20
548.5766159362138
 30
0.0
 10
-135.82923208797
 20
541.6950310112516
 30
0.0
 10
-137.0531151753094
 20
538.2003077596537
 30
0.0
 10
-139.1835709492443
 20
531.100413516524
 30
0.0
 10
-140.0903008680034
 20
527.4952969499627
 30
0.0
 10
-141.0076848066819
 20
522.9137081527706
 30
0.0
 10
-141.1803369630652
 20
521.9936227152375
 30
0.0
 10
-141.5043886695639
 20
520.1460545951559
 30
0.0
 10
-141.6559099753795
 20
519.2180170921501
 30
0.0
 10
-142.0780873187468
 20
516.4367453144678
 30
0.0
 10
-142.3162926113873
 20
514.5820393546828
 30
0.0
 10
-142.705986449233
 20
510.8715755581461
 30
0.0
 10
-142.8561931634613
 20
509.0158035690592
 30
0.0
 10
-143.0834233100177
 20
505.303374026561
 30
0.0
 10
-143.1605154724384
 20
503.4467121167827
 30
0.0
 10
-143.2329694949149
 20
499.7324120540043
 30
0.0
 10
-143.2279309894366
 20
497.8747727434875
 30
0.0
 10
-143.2062221517554
 20
494.1593825811606
 30
0.0
 10
-143.1929227413202
 20
492.3016533500268
 30
0.0
 10
-143.147990467085
 20
486.7283953966744
 30
0.0
 10
-143.1102318728226
 20
483.0127916894317
 30
0.0
 10
-143.0276909162058
 20
475.5815145921833
 30
0.0
 10
-142.9835704537982
 20
471.8658398905345
 30
0.0
 10
-142.8933124318719
 20
464.4344588311806
 30
0.0
 10
-142.8460060185753
 20
460.7187438080909
 30
0.0
 10
-142.7580699696264
 20
453.2874004042969
 30
0.0
 10
-142.7161575171049
 20
449.5717549871988
 30
0.0
 10
-142.5913664525724
 20
438.4248313582029
 30
0.0
 10
-142.5084682482993
 20
430.9935315646544
 30
0.0
 10
-142.3323708252574
 20
416.131070941502
 30
0.0
 10
-142.240679134964
 20
408.6998937417829
 30
0.0
 10
-141.9610644249187
 20
386.4064369718135
 30
0.0
 10
-141.7689187432115
 20
371.5442250613132
 30
0.0
 10
-141.1655168273137
 20
326.9579967926211
 30
0.0
 10
-140.7313029298384
 20
297.2343364835142
 30
0.0
 10
-139.8015649997687
 20
237.7879606645402
 30
0.0
 10
-139.3048874753586
 20
208.0652628287153
 30
0.0
 10
-138.5269086320477
 20
163.4817177381565
 30
0.0
 10
-138.2624083269038
 20
148.6206149533509
 30
0.0
 10
-137.7318657625583
 20
118.8984236579608
 30
0.0
 10
-137.4644826362492
 20
104.0373562479735
 30
0.0
 10
-137.0800505840161
 20
81.74549690128151
 30
0.0
 10
-136.9550020717143
 20
74.3148295575802
 30
0.0
 10
-136.7187318928191
 20
59.45328234967292
 30
0.0
 10
-136.6065285815275
 20
52.0224173541219
 30
0.0
 10
-136.409764958953
 20
37.16026274301294
 30
0.0
 10
-136.3257598014607
 20
29.72896488031256
 30
0.0
 10
-136.2384558863996
 20
18.58142275673981
 30
0.0
 10
-136.2155467271514
 20
14.86547983083528
 30
0.0
 10
-136.1917342973466
 20
9.291401562995816
 30
0.0
 10
-136.1824689240602
 20
6.504321414149672
 30
0.0
 10
-136.1765999312338
 20
3.252650991175869
 30
0.0
 10
-136.1749436169339
 20
1.626795860939637
 30
0.0
 10
-136.1744405835634
 20
0.8138632269119626
 30
0.0
 10
-136.1742952754721
 20
0.4654624307004269
 30
0.0
 10
-136.1742140888528
 20
0.2331949885992799
 30
0.0
 10
-136.1741810882231
 20
0.1158937003629035
 30
0.0
 10
-136.1741564646654
 20
0.0009271790131606
 30
0.0
  0
ENDBLK
  5
1013530
330
101352B
100
AcDbEntity
  8
0
100
AcDbBlockEnd
  0
BLOCK
  5
1013670
330
101366D
100
AcDbEntity
  8
0
100
AcDbBlockBegin
  2
A$C5D911E66
 70
     0
 10
0.0
 20
0.0
 30
0.0
  3
A$C5D911E66
  1

  0
LINE
  5
1013671
330
101366D
100
AcDbEntity
  8
mittellinien_aktuell
 48
0.3
100
AcDbLine
 10
-78.92893218813697
 20
0.0
 30
0.0
 11
78.92893218813697
 21
0.0
 31
0.0
  0
LINE
  5
1013672
330
101366D
100
AcDbEntity
  8
mittellinien_aktuell
 48
0.3
100
AcDbLine
 10
0.0
 20
78.92893218813333
 30
0.0
 11
0.0
 21
-78.92893218813333
 31
0.0
  0
ENDBLK
  5
1013673
330
101366D
100
AcDbEntity
  8
0
100
AcDbBlockEnd
  0
BLOCK
  5
1013677
330
1013674
100
AcDbEntity
  8
0
100
AcDbBlockBegin
  2
A$C1B8C2529
 70
     0
 10
0.0
 20
0.0
 30
0.0
  3
A$C1B8C2529
  1

  0
INSERT
  5
1013678
330
1013674
100
AcDbEntity
  8
bemaßung
100
AcDbBlockReference
  2
A$C5D911E66
 10
0.0
 20
0.0
 30
0.0
  0
ENDBLK
  5
1013679
330
1013674
100
AcDbEntity
  8
0
100
AcDbBlockEnd
  0
BLOCK
  5
1013D03
330
1013D01
100
AcDbEntity
  8
0
100
AcDbBlockBegin
  2
A$C44595064
 70
     0
 10
0.0
 20
0.0
 30
0.0
  3
A$C44595064
  1

  0
SPLINE
  5
1013D02
330
1013D01
100
AcDbEntity
  8
0
  6
Continuous
 62
     7
370
    25
100
AcDbSpline
210
0.0
220
0.0
230
1.0
 70
    11
 71
     3
 72
   359
 73
   355
 74
     0
 42
0.000000001
 43
0.0000000001
 40
0.0
 40
0.0
 40
0.0
 40
0.0
 40
0.00390625
 40
0.00390625
 40
0.0048828125
 40
0.0048828125
 40
0.005859375
 40
0.005859375
 40
0.0078125
 40
0.0078125
 40
0.0087890625
 40
0.0087890625
 40
0.009765625
 40
0.009765625
 40
0.01171875
 40
0.01171875
 40
0.0156249999999999
 40
0.0156249999999999
 40
0.0195312499999999
 40
0.0195312499999999
 40
0.0205078124999999
 40
0.0205078124999999
 40
0.0214843749999999
 40
0.0214843749999999
 40
0.0234374999999999
 40
0.0234374999999999
 40
0.0273437499999998
 40
0.0273437499999998
 40
0.0312499999999997
 40
0.0312499999999997
 40
0.0332031249999996
 40
0.0332031249999996
 40
0.0351562499999996
 40
0.0351562499999996
 40
0.0390624999999995
 40
0.0390624999999995
 40
0.0429687499999994
 40
0.0429687499999994
 40
0.0468749999999994
 40
0.0468749999999994
 40
0.0478515624999993
 40
0.0478515624999993
 40
0.0488281249999993
 40
0.0488281249999993
 40
0.0507812499999993
 40
0.0507812499999993
 40
0.0546874999999992
 40
0.0546874999999992
 40
0.0585937499999991
 40
0.0585937499999991
 40
0.060546874999999
 40
0.060546874999999
 40
0.061523437499999
 40
0.061523437499999
 40
0.0624999999999989
 40
0.0624999999999989
 40
0.0644531249999989
 40
0.0644531249999989
 40
0.0664062499999988
 40
0.0664062499999988
 40
0.0683593749999988
 40
0.0683593749999988
 40
0.0703124999999987
 40
0.0703124999999987
 40
0.0712890624999987
 40
0.0712890624999987
 40
0.0722656249999987
 40
0.0722656249999987
 40
0.0742187499999986
 40
0.0742187499999986
 40
0.0761718749999985
 40
0.0761718749999985
 40
0.0781249999999985
 40
0.0781249999999985
 40
0.0800781249999984
 40
0.0800781249999984
 40
0.0820312499999984
 40
0.0820312499999984
 40
0.0859374999999983
 40
0.0859374999999983
 40
0.093749999999998
 40
0.093749999999998
 40
0.1093749999999975
 40
0.1093749999999975
 40
0.1249999999999971
 40
0.1249999999999971
 40
0.1562499999999961
 40
0.1562499999999961
 40
0.1874999999999952
 40
0.1874999999999952
 40
0.2031249999999947
 40
0.2031249999999947
 40
0.2187499999999942
 40
0.2187499999999942
 40
0.2226562499999941
 40
0.2226562499999941
 40
0.224609374999994
 40
0.224609374999994
 40
0.2265624999999939
 40
0.2265624999999939
 40
0.2285156249999939
 40
0.2285156249999939
 40
0.2304687499999938
 40
0.2304687499999938
 40
0.2324218749999938
 40
0.2324218749999938
 40
0.2343749999999937
 40
0.2343749999999937
 40
0.2382812499999936
 40
0.2382812499999936
 40
0.2421874999999934
 40
0.2421874999999934
 40
0.2460937499999933
 40
0.2460937499999933
 40
0.2499999999999932
 40
0.2499999999999932
 40
0.2539062499999931
 40
0.2539062499999931
 40
0.255859374999993
 40
0.255859374999993
 40
0.256835937499993
 40
0.256835937499993
 40
0.257812499999993
 40
0.257812499999993
 40
0.2656249999999927
 40
0.2656249999999927
 40
0.2695312499999926
 40
0.2695312499999926
 40
0.2714843749999926
 40
0.2714843749999926
 40
0.2734374999999925
 40
0.2734374999999925
 40
0.2773437499999924
 40
0.2773437499999924
 40
0.2812499999999923
 40
0.2812499999999923
 40
0.2851562499999923
 40
0.2851562499999923
 40
0.2871093749999922
 40
0.2871093749999922
 40
0.2880859374999921
 40
0.2880859374999921
 40
0.2890624999999921
 40
0.2890624999999921
 40
0.292968749999992
 40
0.292968749999992
 40
0.2968749999999918
 40
0.2968749999999918
 40
0.2988281249999918
 40
0.2988281249999918
 40
0.3007812499999917
 40
0.3007812499999917
 40
0.3027343749999916
 40
0.3027343749999916
 40
0.3046874999999916
 40
0.3046874999999916
 40
0.3124999999999913
 40
0.3124999999999913
 40
0.3749999999999893
 40
0.3749999999999893
 40
0.4374999999999872
 40
0.4374999999999872
 40
0.4531249999999867
 40
0.4531249999999867
 40
0.4609374999999865
 40
0.4609374999999865
 40
0.4687499999999862
 40
0.4687499999999862
 40
0.476562499999986
 40
0.476562499999986
 40
0.4843749999999857
 40
0.4843749999999857
 40
0.4863281249999856
 40
0.4863281249999856
 40
0.4882812499999855
 40
0.4882812499999855
 40
0.4892578124999855
 40
0.4892578124999855
 40
0.4902343749999854
 40
0.4902343749999854
 40
0.4921874999999853
 40
0.4921874999999853
 40
0.4960937499999851
 40
0.4960937499999851
 40
0.4999999999999849
 40
0.4999999999999849
 40
0.5039062499999847
 40
0.5039062499999847
 40
0.5078124999999845
 40
0.5078124999999845
 40
0.5117187499999842
 40
0.5117187499999842
 40
0.5156249999999839
 40
0.5156249999999839
 40
0.5234374999999836
 40
0.5234374999999836
 40
0.5312499999999832
 40
0.5312499999999832
 40
0.5332031249999832
 40
0.5332031249999832
 40
0.5351562499999832
 40
0.5351562499999832
 40
0.5390624999999832
 40
0.5390624999999832
 40
0.5429687499999832
 40
0.5429687499999832
 40
0.5468749999999831
 40
0.5468749999999831
 40
0.5478515624999831
 40
0.5478515624999831
 40
0.5488281249999831
 40
0.5488281249999831
 40
0.5507812499999832
 40
0.5507812499999832
 40
0.5527343749999833
 40
0.5527343749999833
 40
0.5546874999999835
 40
0.5546874999999835
 40
0.5585937499999837
 40
0.5585937499999837
 40
0.5605468749999838
 40
0.5605468749999838
 40
0.5624999999999839
 40
0.5624999999999839
 40
0.564453124999984
 40
0.564453124999984
 40
0.5664062499999841
 40
0.5664062499999841
 40
0.5683593749999842
 40
0.5683593749999842
 40
0.5703124999999843
 40
0.5703124999999843
 40
0.5781249999999847
 40
0.5781249999999847
 40
0.5859374999999851
 40
0.5859374999999851
 40
0.5937499999999856
 40
0.5937499999999856
 40
0.6249999999999872
 40
0.6249999999999872
 40
0.6874999999999906
 40
0.6874999999999906
 40
0.7187499999999922
 40
0.7187499999999922
 40
0.7207031249999922
 40
0.7207031249999922
 40
0.7226562499999923
 40
0.7226562499999923
 40
0.7246093749999925
 40
0.7246093749999925
 40
0.7265624999999926
 40
0.7265624999999926
 40
0.7285156249999927
 40
0.7285156249999927
 40
0.7304687499999928
 40
0.7304687499999928
 40
0.734374999999993
 40
0.734374999999993
 40
0.7363281249999931
 40
0.7363281249999931
 40
0.7382812499999932
 40
0.7382812499999932
 40
0.7421874999999934
 40
0.7421874999999934
 40
0.7431640624999936
 40
0.7431640624999936
 40
0.7441406249999937
 40
0.7441406249999937
 40
0.7460937499999938
 40
0.7460937499999938
 40
0.7499999999999941
 40
0.7499999999999941
 40
0.7578124999999946
 40
0.7578124999999946
 40
0.7617187499999949
 40
0.7617187499999949
 40
0.7626953124999949
 40
0.7626953124999949
 40
0.7636718749999949
 40
0.7636718749999949
 40
0.765624999999995
 40
0.765624999999995
 40
0.7695312499999953
 40
0.7695312499999953
 40
0.7734374999999957
 40
0.7734374999999957
 40
0.777343749999996
 40
0.777343749999996
 40
0.7792968749999962
 40
0.7792968749999962
 40
0.7802734374999962
 40
0.7802734374999962
 40
0.7812499999999963
 40
0.7812499999999963
 40
0.7832031249999964
 40
0.7832031249999964
 40
0.7851562499999966
 40
0.7851562499999966
 40
0.7871093749999967
 40
0.7871093749999967
 40
0.7890624999999968
 40
0.7890624999999968
 40
0.7929687499999969
 40
0.7929687499999969
 40
0.796874999999997
 40
0.796874999999997
 40
0.798828124999997
 40
0.798828124999997
 40
0.799804687499997
 40
0.799804687499997
 40
0.800781249999997
 40
0.800781249999997
 40
0.802734374999997
 40
0.802734374999997
 40
0.804687499999997
 40
0.804687499999997
 40
0.8085937499999971
 40
0.8085937499999971
 40
0.8124999999999971
 40
0.8124999999999971
 40
0.8203124999999972
 40
0.8203124999999972
 40
0.8281249999999973
 40
0.8281249999999973
 40
0.8437499999999976
 40
0.8437499999999976
 40
0.874999999999998
 40
0.874999999999998
 40
0.9062499999999986
 40
0.9062499999999986
 40
0.9374999999999991
 40
0.9374999999999991
 40
0.9531249999999994
 40
0.9531249999999994
 40
0.9687499999999997
 40
0.9687499999999997
 40
0.9765624999999998
 40
0.9765624999999998
 40
0.9843749999999999
 40
0.9843749999999999
 40
0.9921874999999999
 40
0.9921874999999999
 40
0.99609375
 40
0.99609375
 40
0.998046875
 40
0.9990234375
 40
0.99951171875
 40
0.999755859375
 40
0.9998779296875
 40
0.99993896484375
 40
0.999969482421875
 40
0.9999847412109375
 40
0.9999847412109375
 40
1.0
 40
1.0
 40
1.0
 40
1.0
 10
-136.1741562208086
 20
0.000086984014672
 30
0.0
 10
-136.1737628953176
 20
-3.584262646267575
 30
0.0
 10
-136.1825021190867
 20
-7.168585751569566
 30
0.0
 10
-136.1983315090475
 20
-11.64897515860275
 30
0.0
 10
-136.2020327307561
 20
-12.54505149990567
 30
0.0
 10
-136.2129324077418
 20
-14.33719411913927
 30
0.0
 10
-136.2206413296204
 20
-15.23336569301676
 30
0.0
 10
-136.2396242944349
 20
-17.92158165688824
 30
0.0
 10
-136.2498127463906
 20
-19.71342195306573
 30
0.0
 10
-136.2166822369671
 20
-22.39520281578029
 30
0.0
 10
-136.1975478982772
 20
-23.28813041434637
 30
0.0
 10
-136.1342313665794
 20
-25.07089182648036
 30
0.0
 10
-136.090426370993
 20
-25.96077203349699
 30
0.0
 10
-135.9296318522739
 20
-28.62678389247134
 30
0.0
 10
-135.7841756907185
 20
-30.39940001586706
 30
0.0
 10
-135.241507846711
 20
-35.70411744548841
 30
0.0
 10
-134.7396215743495
 20
-39.22328936837715
 30
0.0
 10
-133.3739915698953
 20
-46.21693900837829
 30
0.0
 10
-132.5211287722364
 20
-49.69275991476457
 30
0.0
 10
-131.2395814576046
 20
-54.01092184440415
 30
0.0
 10
-130.9726817704804
 20
-54.87243762225864
 30
0.0
 10
-130.4203621318701
 20
-56.58376454700556
 30
0.0
 10
-130.134627562291
 20
-57.43465644563554
 30
0.0
 10
-129.2494359751364
 20
-59.97338442464638
 30
0.0
 10
-128.6218808084404
 20
-61.64721783632763
 30
0.0
 10
-126.6294762320622
 20
-66.61402980593027
 30
0.0
 10
-125.1561984051535
 20
-69.85297329004038
 30
0.0
 10
-121.9229671414301
 20
-76.18799618684915
 30
0.0
 10
-120.1606214912091
 20
-79.28288337844009
 30
0.0
 10
-117.2943950818851
 20
-83.81422803643028
 30
0.0
 10
-116.3017152862745
 20
-85.3061023206273
 30
0.0
 10
-114.2405089705419
 20
-88.25205279391696
 30
0.0
 10
-113.1703917437328
 20
-89.70797577510365
 30
0.0
 10
-109.8792099279678
 20
-93.97465606828416
 30
0.0
 10
-107.5678302536522
 20
-96.69881793398235
 30
0.0
 10
-102.7144471247606
 20
-101.9105521970737
 30
0.0
 10
-100.1724222446377
 20
-104.3981026152345
 30
0.0
 10
-94.86100959175678
 20
-109.1399592182958
 30
0.0
 10
-92.09139733567508
 20
-111.3940351125254
 30
0.0
 10
-88.48315898752696
 20
-114.0616245089391
 30
0.0
 10
-87.75418768810101
 20
-114.5876293134853
 30
0.0
 10
-86.28142506276322
 20
-115.6244355371519
 30
0.0
 10
-85.53758462939578
 20
-116.135225668855
 30
0.0
 10
-83.29545428782677
 20
-117.636752915105
 30
0.0
 10
-81.78271817905676
 20
-118.5994158923985
 30
0.0
 10
-77.19136329136455
 20
-121.3740478679503
 30
0.0
 10
-74.0593305509625
 20
-123.072089542478
 30
0.0
 10
-67.65987170611197
 20
-126.1793905331724
 30
0.0
 10
-64.39181585899337
 20
-127.5873073790887
 30
0.0
 10
-59.3849356785289
 20
-129.4756605556195
 30
0.0
 10
-57.69879118796081
 20
-130.0684583923332
 30
0.0
 10
-55.14100339735245
 20
-130.896716028045
 30
0.0
 10
-54.28362746004132
 20
-131.1626066482353
 30
0.0
 10
-52.55889353930399
 20
-131.6730973003592
 30
0.0
 10
-51.69046718971322
 20
-131.9180050627639
 30
0.0
 10
-49.0784095732609
 20
-132.6196944956519
 30
0.0
 10
-47.33366238204303
 20
-133.0424909934952
 30
0.0
 10
-43.83838184157656
 20
-133.8109533059607
 30
0.0
 10
-42.08771535002069
 20
-134.1548514387057
 30
0.0
 10
-38.58003631085899
 20
-134.7580879926081
 30
0.0
 10
-36.82309977357141
 20
-135.0184338691693
 30
0.0
 10
-33.30375534324878
 20
-135.4661823882724
 30
0.0
 10
-31.54118326971548
 20
-135.6513909645388
 30
0.0
 10
-28.89394463735977
 20
-135.8841562396535
 30
0.0
 10
-28.0109035480229
 20
-135.9533761922863
 30
0.0
 10
-26.24290730627382
 20
-136.0663071585052
 30
0.0
 10
-25.35795731715899
 20
-136.1100826966464
 30
0.0
 10
-22.70087442916173
 20
-136.211647133988
 30
0.0
 10
-20.92647826331557
 20
-136.2392718221886
 30
0.0
 10
-17.37405933366057
 20
-136.2461728852246
 30
0.0
 10
-15.59608532865042
 20
-136.2260867034327
 30
0.0
 10
-12.04156983531402
 20
-136.205033017869
 30
0.0
 10
-10.26426982877484
 20
-136.1939523900732
 30
0.0
 10
-6.710017165087152
 20
-136.1764092543794
 30
0.0
 10
-4.933393571616193
 20
-136.1743426274112
 30
0.0
 10
-1.380489267298799
 20
-136.1747936972664
 30
0.0
 10
0.3959865086424088
 20
-136.1747076744456
 30
0.0
 10
5.724998574532947
 20
-136.1800027892648
 30
0.0
 10
9.277236969539445
 20
-136.1910176410437
 30
0.0
 10
19.93409059969105
 20
-136.2393506206173
 30
0.0
 10
27.03816363829344
 20
-136.3020112057643
 30
0.0
 10
48.34957032746297
 20
-136.5392751712637
 30
0.0
 10
62.55612025442662
 20
-136.7616359489937
 30
0.0
 10
90.96877018687394
 20
-137.2340062835043
 30
0.0
 10
105.1748267545272
 20
-137.4865303247487
 30
0.0
 10
147.7929477576653
 20
-138.2464765774889
 30
0.0
 10
176.2049666446658
 20
-138.7561724430209
 30
0.0
 10
233.0298483336259
 20
-139.7216603506509
 30
0.0
 10
261.4426519267562
 20
-140.1806047888225
 30
0.0
 10
304.0625295360552
 20
-140.8252236449829
 30
0.0
 10
318.2692567394945
 20
-141.0333787505292
 30
0.0
 10
346.6829588023984
 20
-141.4341492726928
 30
0.0
 10
360.889897337535
 20
-141.6277138981737
 30
0.0
 10
378.6487755797002
 20
-141.8580836627044
 30
0.0
 10
382.2004859535041
 20
-141.9085396054134
 30
0.0
 10
387.5281475252
 20
-141.9778014684283
 30
0.0
 10
389.3040284038924
 20
-142.0011187662389
 30
0.0
 10
392.8558678474965
 20
-142.0430223169809
 30
0.0
 10
394.6318605464455
 20
-142.0592533876616
 30
0.0
 10
398.1838068319687
 20
-142.0928545774901
 30
0.0
 10
399.9597590222879
 20
-142.1036230311641
 30
0.0
 10
403.4987004984965
 20
-142.0457376716672
 30
0.0
 10
405.2616490016652
 20
-141.9746255603447
 30
0.0
 10
408.7773028624412
 20
-141.7662474782859
 30
0.0
 10
410.5297488486378
 20
-141.6272781496701
 30
0.0
 10
414.0217446845718
 20
-141.265990099765
 30
0.0
 10
415.761632037095
 20
-141.0458573606892
 30
0.0
 10
420.9637980731662
 20
-140.2723849858176
 30
0.0
 10
424.4078335025614
 20
-139.6011342084644
 30
0.0
 10
431.2485441754327
 20
-137.9525641516151
 30
0.0
 10
434.645972191902
 20
-136.9801105808295
 30
0.0
 10
441.3942067114335
 20
-134.7338992121738
 30
0.0
 10
444.6997151309654
 20
-133.4745127312734
 30
0.0
 10
451.1622180396738
 20
-130.6866706181847
 30
0.0
 10
454.3206788527457
 20
-129.1568957611276
 30
0.0
 10
460.4927179952605
 20
-125.8269442093477
 30
0.0
 10
463.5067019409034
 20
-124.0275247363701
 30
0.0
 10
467.9202412205467
 20
-121.1278809754835
 30
0.0
 10
469.3734543470879
 20
-120.1278009998165
 30
0.0
 10
471.5259501469462
 20
-118.5766851324962
 30
0.0
 10
472.2388926427237
 20
-118.0511432307609
 30
0.0
 10
473.655576736087
 20
-116.9828873484421
 30
0.0
 10
474.3601688574239
 20
-116.4394937416019
 30
0.0
 10
480.63752463823
 20
-111.4883568782209
 30
0.0
 10
485.7595410504449
 20
-106.6664295379573
 30
0.0
 10
492.7753167222996
 20
-98.82012102044575
 30
0.0
 10
495.0020975583759
 20
-96.10189450075
 30
0.0
 10
498.1751962996901
 20
-91.87096132017035
 30
0.0
 10
499.2049932073111
 20
-90.43499872134703
 30
0.0
 10
501.2079122066766
 20
-87.51097106239257
 30
0.0
 10
502.182745325051
 20
-86.01957240000911
 30
0.0
 10
504.9916432741758
 20
-81.50405368803575
 30
0.0
 10
506.7157534594804
 20
-78.42905533782846
 30
0.0
 10
509.8937936376636
 20
-72.16142148230244
 30
0.0
 10
511.3497145944413
 20
-68.96965286789731
 30
0.0
 10
513.9924451880277
 20
-62.4689433036902
 30
0.0
 10
515.1741275205742
 20
-59.15776981692881
 30
0.0
 10
516.7134083230312
 20
-54.08945414734916
 30
0.0
 10
517.187426437239
 20
-52.38300183556692
 30
0.0
 10
517.8394764079735
 20
-49.79764438512586
 30
0.0
 10
518.0472231716469
 20
-48.9313313020686
 30
0.0
 10
518.4423550573996
 20
-47.1995862256187
 30
0.0
 10
518.6300340590109
 20
-46.33303271102864
 30
0.0
 10
519.5218347602813
 20
-41.99705589963548
 30
0.0
 10
520.0900195128187
 20
-38.51826980352752
 30
0.0
 10
520.9662991425646
 20
-31.54278360871541
 30
0.0
 10
521.2684824257466
 20
-28.04567626084207
 30
0.0
 10
521.4932580755328
 20
-22.78427711725436
 30
0.0
 10
521.5252939192873
 20
-21.02752336377836
 30
0.0
 10
521.5455538298003
 20
-17.51099820206838
 30
0.0
 10
521.543080437658
 20
-15.75186751610943
 30
0.0
 10
521.5359808633269
 20
-12.23345784449543
 30
0.0
 10
521.5296114108046
 20
-10.47405878097868
 30
0.0
 10
521.5250649819719
 20
-6.95582496757919
 30
0.0
 10
521.5253561530313
 20
-5.196884699346924
 30
0.0
 10
521.5297692635282
 20
3.597612946322158
 30
0.0
 10
521.5326347172638
 20
10.63320062864437
 30
0.0
 10
521.5558431493147
 20
73.95386137844307
 30
0.0
 10
521.7224856366754
 20
130.2386816261336
 30
0.0
 10
522.2105494365612
 20
242.8074776108231
 30
0.0
 10
522.5294053386283
 20
299.0914783771137
 30
0.0
 10
522.9352416984904
 20
369.446343958447
 30
0.0
 10
523.0173917275698
 20
383.517308856742
 30
0.0
 10
523.1389436973386
 20
404.6237610584296
 30
0.0
 10
523.1791469841871
 20
411.6592460191711
 30
0.0
 10
523.2608178810545
 20
425.7302082446237
 30
0.0
 10
523.3029307856918
 20
432.7656823632066
 30
0.0
 10
523.3833027040936
 20
446.8366494158782
 30
0.0
 10
523.4192442919291
 20
453.872155020778
 30
0.0
 10
523.49328495424
 20
467.9431495799396
 30
0.0
 10
523.5360091677493
 20
474.9786238593678
 30
0.0
 10
523.5941710280359
 20
483.7729286892961
 30
0.0
 10
523.607917590169
 20
485.5317752368529
 30
0.0
 10
523.6344110138201
 20
489.0494828348931
 30
0.0
 10
523.6408665214888
 20
490.8083828161956
 30
0.0
 10
523.6437331024076
 20
493.4467561758307
 30
0.0
 10
523.6445500854018
 20
494.3262129124975
 30
0.0
 10
523.6487126083707
 20
496.0851103688045
 30
0.0
 10
523.6530948945202
 20
496.9645467561974
 30
0.0
 10
523.6522985555173
 20
499.6029440237502
 30
0.0
 10
523.6276603599322
 20
501.3632042229326
 30
0.0
 10
523.4399278117479
 20
506.6354220741804
 30
0.0
 10
523.1869000420392
 20
510.1364522670469
 30
0.0
 10
522.4042940177752
 20
517.1087040983218
 30
0.0
 10
521.8758859894878
 20
520.5819259243899
 30
0.0
 10
520.5106376692888
 20
527.4874946759059
 30
0.0
 10
519.6805150832174
 20
530.8832456700216
 30
0.0
 10
517.726709650052
 20
537.5612364932083
 30
0.0
 10
516.6069758908905
 20
540.8450029661644
 30
0.0
 10
514.0973959997249
 20
547.3080902989393
 30
0.0
 10
512.7058084373645
 20
550.4867379569089
 30
0.0
 10
509.6412763404859
 20
556.735240624321
 30
0.0
 10
507.9696980155593
 20
559.8056236282118
 30
0.0
 10
502.5512942239391
 20
568.8606835321144
 30
0.0
 10
498.5077567498737
 20
574.53386404306
 30
0.0
 10
489.5365406999138
 20
585.1221485151983
 30
0.0
 10
484.6098595825862
 20
590.0401991499386
 30
0.0
 10
477.8729112198246
 20
595.6944078860097
 30
0.0
 10
476.5030261900789
 20
596.7946966469985
 30
0.0
 10
473.7287253912249
 20
598.9280459856102
 30
0.0
 10
472.322828589471
 20
599.9623879226739
 30
0.0
 10
468.0502168525161
 20
602.970688556383
 30
0.0
 10
465.1288635725871
 20
604.850410176483
 30
0.0
 10
459.1430435717583
 20
608.3630195529536
 30
0.0
 10
456.0785509710716
 20
609.9958626402387
 30
0.0
 10
449.8021639664071
 20
613.0073184441975
 30
0.0
 10
446.5885220777582
 20
614.3829174390548
 30
0.0
 10
442.4761977137988
 20
615.9380961900247
 30
0.0
 10
441.6494545207406
 20
616.2409563405481
 30
0.0
 10
439.9968762406669
 20
616.8274472520978
 30
0.0
 10
439.1697837219356
 20
617.1114697652158
 30
0.0
 10
436.6860616743445
 20
617.9354777372948
 30
0.0
 10
435.0269558996929
 20
618.4470416124437
 30
0.0
 10
431.7022459213482
 20
619.395575100031
 30
0.0
 10
430.0367558756626
 20
619.833851988411
 30
0.0
 10
426.7000472519996
 20
620.6446286207604
 30
0.0
 10
425.0288365235833
 20
621.0172228611993
 30
0.0
 10
420.0052370649719
 20
622.0206128854797
 30
0.0
 10
416.6425111637235
 20
622.5327497149752
 30
0.0
 10
411.5815672900775
 20
623.1074131598552
 30
0.0
 10
409.8913557651923
 20
623.2618863143327
 30
0.0
 10
406.5046023309724
 20
623.4981585951598
 30
0.0
 10
404.8085903317511
 20
623.5860443964011
 30
0.0
 10
401.4104511852606
 20
623.6916738601315
 30
0.0
 10
399.7074335449818
 20
623.6991103812462
 30
0.0
 10
396.3005730807082
 20
623.7044792899364
 30
0.0
 10
394.5962316475702
 20
623.6966921661021
 30
0.0
 10
391.1879284369816
 20
623.6854621242658
 30
0.0
 10
389.4839207425772
 20
623.6815176295556
 30
0.0
 10
386.0754756451895
 20
623.6686963676959
 30
0.0
 10
384.3710550303515
 20
623.6600036575549
 30
0.0
 10
375.8490882616959
 20
623.6181121566349
 30
0.0
 10
369.0313895192259
 20
623.5832028453472
 30
0.0
 10
355.3969658632302
 20
623.5244971573716
 30
0.0
 10
348.5800177200748
 20
623.4989501304985
 30
0.0
 10
334.9459417968244
 20
623.4435271043009
 30
0.0
 10
328.1289073864673
 20
623.4145154353122
 30
0.0
 10
294.0437204465887
 20
623.2731199403129
 30
0.0
 10
266.7755331705334
 20
623.1681599085557
 30
0.0
 10
184.9708406029054
 20
622.8790907546734
 30
0.0
 10
130.4341603539472
 20
622.7278140080541
 30
0.0
 10
48.62878881252345
 20
622.6182673193176
 30
0.0
 10
21.36026793067504
 20
622.6015942441406
 30
0.0
 10
-7.612590366717257
 20
622.6006058869903
 30
0.0
 10
-9.316884697516286
 20
622.6033779082165
 30
0.0
 10
-12.72547939839069
 20
622.6109207700099
 30
0.0
 10
-14.42976624889451
 20
622.6112297096945
 30
0.0
 10
-17.83834729681337
 20
622.6142090943771
 30
0.0
 10
-19.54265134670555
 20
622.6204091371926
 30
0.0
 10
-22.95105403195259
 20
622.5635669530351
 30
0.0
 10
-24.65515563118254
 20
622.5014063470754
 30
0.0
 10
-28.06316528262568
 20
622.3114671477226
 30
0.0
 10
-29.76829685973587
 20
622.1831573223212
 30
0.0
 10
-33.1582435364673
 20
621.8625042407315
 30
0.0
 10
-34.84564880375177
 20
621.6709821772204
 30
0.0
 10
-39.88552189828715
 20
621.004319300924
 30
0.0
 10
-43.21687116003932
 20
620.4421273842079
 30
0.0
 10
-48.16089518580264
 20
619.3803754761894
 30
0.0
 10
-49.79996375124671
 20
618.9896101264524
 30
0.0
 10
-53.06134796607193
 20
618.1390241320689
 30
0.0
 10
-54.68366708663535
 20
617.6792177702437
 30
0.0
 10
-59.52436292148758
 20
616.1915492594576
 30
0.0
 10
-62.71542002959666
 20
615.0510767009329
 30
0.0
 10
-66.66271865515847
 20
613.4543297792547
 30
0.0
 10
-67.45009728112541
 20
613.1264021339057
 30
0.0
 10
-69.02073093675762
 20
612.4535494392719
 30
0.0
 10
-69.80399253667673
 20
612.1086359192383
 30
0.0
 10
-72.13591785608924
 20
611.0536086071484
 30
0.0
 10
-73.67064240539838
 20
610.3215204264653
 30
0.0
 10
-78.21608390559896
 20
608.0404108486996
 30
0.0
 10
-81.16819355438724
 20
606.4067247511604
 30
0.0
 10
-89.79223113094383
 20
601.1700960861062
 30
0.0
 10
-95.2317461097939
 20
597.2314075274583
 30
0.0
 10
-102.9121664853611
 20
590.6316217743074
 30
0.0
 10
-105.3925906302699
 20
588.3165349533472
 30
0.0
 10
-108.3903714117743
 20
585.2742441594246
 30
0.0
 10
-108.9852448734727
 20
584.6578251223601
 30
0.0
 10
-110.1583091321615
 20
583.4166321020468
 30
0.0
 10
-110.7372306385698
 20
582.7911322366051
 30
0.0
 10
-112.4514292602793
 20
580.9000939009554
 30
0.0
 10
-113.5641580181686
 20
579.6200279810673
 30
0.0
 10
-116.8139084028684
 20
575.7228524809581
 30
0.0
 10
-118.8631988425642
 20
573.0492194704987
 30
0.0
 10
-122.7345825543574
 20
567.5555744009073
 30
0.0
 10
-124.5557983580978
 20
564.7349969999407
 30
0.0
 10
-127.9642943642165
 20
558.9431221212308
 30
0.0
 10
-129.551248609378
 20
555.9716147798931
 30
0.0
 10
-131.7541189047217
 20
551.3999550429177
 30
0.0
 10
-132.4587692274297
 20
549.8569721497431
 30
0.0
 10
-133.4706628956667
 20
547.5134527066562
 30
0.0
 10
-133.8004880129791
 20
546.727465063648
 30
0.0
 10
-134.4455458381951
 20
545.1460882332868
 30
0.0
 10
-134.7612443400665
 20
544.3494395146804
 30
0.0
 10
-135.6810160794241
 20
541.9608427906815
 30
0.0
 10
-136.2601498763199
 20
540.3670228624833
 30
0.0
 10
-137.3448677605381
 20
537.1763097548678
 30
0.0
 10
-137.8494167183615
 20
535.5793739729877
 30
0.0
 10
-138.7853048948468
 20
532.382450903081
 30
0.0
 10
-139.2182044578761
 20
530.7825275913328
 30
0.0
 10
-140.0194017304154
 20
527.5799824963212
 30
0.0
 10
-140.3869908119561
 20
525.9773289155808
 30
0.0
 10
-141.3776716825858
 20
521.1646899735356
 30
0.0
 10
-141.8898823895941
 20
517.9500774681703
 30
0.0
 10
-142.6674825355549
 20
511.5105533323506
 30
0.0
 10
-142.9334292808734
 20
508.2856626262321
 30
0.0
 10
-143.1580952252867
 20
503.4410517081895
 30
0.0
 10
-143.2058738970114
 20
501.825044047592
 30
0.0
 10
-143.2248920200315
 20
499.398843181679
 30
0.0
 10
-143.2222941935271
 20
498.5897423828824
 30
0.0
 10
-143.2151106317423
 20
496.9714747136028
 30
0.0
 10
-143.2127382597671
 20
496.1623932331772
 30
0.0
 10
-143.2059509332431
 20
493.7351447124444
 30
0.0
 10
-143.196212220281
 20
492.1167522343767
 30
0.0
 10
-143.1680142857131
 20
488.8796167674026
 30
0.0
 10
-143.1522917491322
 20
487.2609831664797
 30
0.0
 10
-143.1043118818408
 20
482.4050393030595
 30
0.0
 10
-143.0660795326811
 20
479.1674866548212
 30
0.0
 10
-142.9918009788774
 20
472.6924723286861
 30
0.0
 10
-142.9539233339564
 20
469.4549330358129
 30
0.0
 10
-142.8373814112787
 20
459.74219090145
 30
0.0
 10
-142.7602505478928
 20
453.2670539428869
 30
0.0
 10
-142.6130020379063
 20
440.3170879881717
 30
0.0
 10
-142.5424886134687
 20
433.8422375430675
 30
0.0
 10
-142.3154149026428
 20
414.4170265943477
 30
0.0
 10
-142.1503147882192
 20
401.4663100642848
 30
0.0
 10
-141.6535257311677
 20
362.6141192697884
 30
0.0
 10
-141.3005932030841
 20
336.7122461217732
 30
0.0
 10
-140.5430673961481
 20
284.9099310180994
 30
0.0
 10
-140.1400992031497
 20
259.0091548550853
 30
0.0
 10
-139.2897145410956
 20
207.2083022516019
 30
0.0
 10
-138.8417301541433
 20
181.3082360867995
 30
0.0
 10
-138.1528273604737
 20
142.4583857475318
 30
0.0
 10
-137.9209984301534
 20
129.5084679087837
 30
0.0
 10
-137.459608563772
 20
103.6085899707353
 30
0.0
 10
-137.22974815064
 20
90.65863455085682
 30
0.0
 10
-136.905354766989
 20
71.23337512586806
 30
0.0
 10
-136.801189956322
 20
64.75822548497999
 30
0.0
 10
-136.605455088358
 20
51.80772444499263
 30
0.0
 10
-136.5139606691064
 20
45.33237214657166
 30
0.0
 10
-136.3567478305768
 20
32.3812552469179
 30
0.0
 10
-136.2913503290505
 20
25.90548595493311
 30
0.0
 10
-136.2233262672934
 20
16.19134911771508
 30
0.0
 10
-136.2055534608332
 20
12.95322468441938
 30
0.0
 10
-136.1872481599078
 20
8.095903361221986
 30
0.0
 10
-136.1801848002198
 20
5.667209020726574
 30
0.0
 10
-136.1758302202836
 20
2.833669618740743
 30
0.0
 10
-136.1746538859802
 20
1.416883774103638
 30
0.0
 10
-136.1743196841015
 20
0.7084867558550911
 30
0.0
 10
-136.1742165429926
 20
0.354287215213219
 30
0.0
 10
-136.1741810211313
 20
0.1771871860674423
 30
0.0
 10
-136.1741672797264
 20
0.0886371066721381
 30
0.0
 10
-136.1741622526683
 20
0.0506870587415449
 30
0.0
 10
-136.1741590929649
 20
0.0253870236967941
 30
0.0
 10
-136.1741577572363
 20
0.0140883497579694
 30
0.0
 10
-136.1741562208086
 20
0.0000869840147004
 30
0.0
  0
ENDBLK
  5
1013D04
330
1013D01
100
AcDbEntity
  8
0
100
AcDbBlockEnd
  0
ENDSEC
  0
SECTION
  2
ENTITIES
  0
CIRCLE
  5
10156C4
330
1F
100
AcDbEntity
  8
0
100
AcDbCircle
 10
9610.888723299082
 20
8100.683463266322
 30
0.0
 40
159.9500000000007
  0
CIRCLE
  5
10156C5
330
1F
100
AcDbEntity
  8
0
100
AcDbCircle
 10
9610.888723299082
 20
8100.683463266322
 30
0.0
 40
23.0
  0
LINE
  5
10156DE
330
1F
100
AcDbEntity
  8
mittellinien_aktuell
 48
0.2
100
AcDbLine
 10
9428.372353822924
 20
8100.683463266322
 30
0.0
 11
9793.40509277524
 21
8100.683463266322
 31
0.0
  0
LINE
  5
10156DF
330
1F
100
AcDbEntity
  8
mittellinien_aktuell
 48
0.2
100
AcDbLine
 10
9610.888723299082
 20
7921.607311869098
 30
0.0
 11
9610.888723299082
 21
8279.759614663546
 31
0.0
  0
CIRCLE
  5
10156E0
330
1F
100
AcDbEntity
  8
0
100
AcDbCircle
 10
9610.888723299082
 20
8100.683463266322
 30
0.0
 40
155.1929531652268
  0
ENDSEC
  0
SECTION
  2
OBJECTS
  0
DICTIONARY
  5
C
330
0
100
AcDbDictionary
281
     1
  3
ACAD_CIP_PREVIOUS_PRODUCT_INFO
350
4869
  3
ACAD_COLOR
350
37D6
  3
ACAD_DETAILVIEWSTYLE
350
4862
  3
ACAD_GROUP
350
D
  3
ACAD_LAYOUT
350
1A
  3
ACAD_MATERIAL
350
37C1
  3
ACAD_MLEADERSTYLE
350
3A69
  3
ACAD_MLINESTYLE
350
17
  3
ACAD_PLOTSETTINGS
350
19
  3
ACAD_PLOTSTYLENAME
350
E
  3
ACAD_SCALELIST
350
3A47
  3
ACAD_SECTIONVIEWSTYLE
350
4860
  3
ACAD_TABLESTYLE
350
37D7
  3
ACAD_VISUALSTYLE
350
37C5
  3
AcadDim
350
294
  3
ACDB_RECOMPOSE_DATA
350
1015780
  3
AcDbVariableDictionary
350
1E3
  3
AEC_PROPERTY_SET_DEFS
350
3AED
  3
ASE_INDEX_DICTIONARY
350
3795
  0
DICTIONARY
  5
3AAA
330
2
100
AcDbDictionary
280
     1
281
     1
  3
ACAD_LAYERSTATES
360
3AAB
  0
DICTIONARY
  5
3B92
330
10
100
AcDbDictionary
280
     1
281
     1
  3
ADSK_XREC_LAYER_RECONCILED
360
3B93
  0
DICTIONARY
  5
3B94
330
34
100
AcDbDictionary
280
     1
281
     1
  3
ADSK_XREC_LAYER_RECONCILED
360
3B95
  0
DICTIONARY
  5
14C1
330
1F
100
AcDbDictionary
280
     1
281
     1
  3
ACAD_SORTENTS
360
14C2
  0
DICTIONARY
  5
1013316
330
1013313
100
AcDbDictionary
280
     1
281
     1
  3
ACAD_SORTENTS
360
1013317
  0
DICTIONARY
  5
101352D
330
101352B
100
AcDbDictionary
280
     1
281
     1
  3
ACAD_SORTENTS
360
101352E
  0
DICTIONARY
  5
101366E
330
101366D
100
AcDbDictionary
280
     1
281
     1
  3
ACAD_SORTENTS
360
101366F
  0
DICTIONARY
  5
1013675
330
1013674
100
AcDbDictionary
280
     1
281
     1
  3
ACAD_SORTENTS
360
1013676
  0
XRECORD
  5
4869
102
{ACAD_REACTORS
330
C
102
}
330
C
100
AcDbXrecord
280
     1
300
ACD
300
2022
300

  0
DICTIONARY
  5
37D6
102
{ACAD_REACTORS
330
C
102
}
330
C
100
AcDbDictionary
281
     1
  0
DICTIONARY
  5
4862
102
{ACAD_REACTORS
330
C
102
}
330
C
100
AcDbDictionary
281
     1
  3
Imperial24
350
4863
  3
Metric50
350
488E
  0
DICTIONARY
  5
D
102
{ACAD_REACTORS
330
C
102
}
330
C
100
AcDbDictionary
281
     1
  0
DICTIONARY
  5
1A
102
{ACAD_REACTORS
330
C
102
}
330
C
100
AcDbDictionary
281
     1
  3
Layout1
350
1E
  3
Layout2
350
26
  3
Model
350
22
  0
DICTIONARY
  5
37C1
102
{ACAD_REACTORS
330
C
102
}
330
C
100
AcDbDictionary
281
     1
  3
ByBlock
350
37C3
  3
ByLayer
350
37C2
  3
Global
350
37C4
  0
DICTIONARY
  5
3A69
102
{ACAD_REACTORS
330
C
102
}
330
C
100
AcDbDictionary
281
     1
  3
Standard
350
3A6A
  0
DICTIONARY
  5
17
102
{ACAD_REACTORS
330
C
102
}
330
C
100
AcDbDictionary
281
     1
  3
Standard
350
18
  0
DICTIONARY
  5
19
102
{ACAD_REACTORS
330
C
102
}
330
C
100
AcDbDictionary
281
     1
  0
ACDBDICTIONARYWDFLT
  5
E
102
{ACAD_REACTORS
330
C
102
}
330
C
100
AcDbDictionary
281
     1
  3
Normal
350
F
  3
Style 1
350
28
100
AcDbDictionaryWithDefault
340
F
  0
DICTIONARY
  5
3A47
102
{ACAD_REACTORS
330
C
102
}
330
C
100
AcDbDictionary
281
     1
  3
A0
350
3A48
  3
A1
350
3A49
  3
A2
350
3A4A
  3
A3
350
3A4B
  3
A4
350
3A4C
  3
A5
350
3A4D
  3
A6
350
3A4E
  3
A7
350
3A4F
  3
A8
350
3A50
  3
A9
350
3A51
  3
B0
350
3A52
  3
B1
350
3A53
  3
B2
350
3A54
  3
B3
350
3A55
  3
B4
350
3A56
  3
B5
350
3A57
  3
B6
350
3A58
  3
B7
350
3A59
  3
B8
350
3A5A
  3
B9
350
3A5B
  3
C0
350
3A5C
  3
C1
350
3A5D
  3
C2
350
3A5E
  3
C3
350
3A5F
  3
C4
350
3A60
  3
C5
350
3A61
  3
C6
350
3A62
  3
C7
350
3A63
  3
C8
350
3A64
  3
C9
350
3A65
  3
D0
350
3A66
  3
D1
350
3A67
  3
D2
350
3A68
  0
DICTIONARY
  5
4860
102
{ACAD_REACTORS
330
C
102
}
330
C
100
AcDbDictionary
281
     1
  3
Imperial24
350
4861
  3
Metric50
350
488D
  0
DICTIONARY
  5
37D7
102
{ACAD_REACTORS
330
C
102
}
330
C
100
AcDbDictionary
281
     1
  3
Standard
350
37D8
  0
DICTIONARY
  5
37C5
102
{ACAD_REACTORS
330
C
102
}
330
C
100
AcDbDictionary
281
     1
  3
2dWireframe
350
37CB
  3
3D Hidden
350
37CD
  3
3dWireframe
350
37CC
  3
Basic
350
37CA
  3
Brighten
350
37D1
  3
ColorChange
350
37D5
  3
Conceptual
350
37CE
  3
Dim
350
37D0
  3
EdgeColorOff
350
3A46
  3
Facepattern
350
37D4
  3
Flat
350
37C6
  3
FlatWithEdges
350
37C7
  3
Gouraud
350
37C8
  3
GouraudWithEdges
350
37C9
  3
Hidden
350
485A
  3
JitterOff
350
3A44
  3
Linepattern
350
37D3
  3
OverhangOff
350
3A45
  3
Realistic
350
37CF
  3
Shaded
350
485F
  3
Shaded with edges
350
485E
  3
Shades of Gray
350
485B
  3
Sketchy
350
485C
  3
Thicken
350
37D2
  3
Wireframe
350
4859
  3
X-Ray
350
485D
  0
XRECORD
  5
294
102
{ACAD_REACTORS
330
C
102
}
330
C
100
AcDbXrecord
280
     1
 90
   990106
  3

 60
     0
 61
     0
 62
     4
 63
     4
 64
     1
 65
     0
 66
     0
 67
     3
 68
     1
 69
     0
 70
     0
 71
     1
 72
     0
 40
0.0
170
     1
340
0
  0
XRECORD
  5
1015780
102
{ACAD_REACTORS
330
C
102
}
330
C
100
AcDbXrecord
280
     1
 90
        1
330
37D8
  0
DICTIONARY
  5
1E3
102
{ACAD_REACTORS
330
C
102
}
330
C
100
AcDbDictionary
281
     1
  3
CANNOSCALE
350
3D2E
  3
CMLEADERSTYLE
350
3D2C
  3
CTABLESTYLE
350
37DD
  3
CVIEWDETAILSTYLE
350
530D
  3
CVIEWSECTIONSTYLE
350
530E
  3
LAYEREVAL
350
3D30
  3
LAYERNOTIFY
350
3D31
  3
LIGHTINGUNITS
350
3D2F
  3
MSLTSCALE
350
3D2D
  3
SORTENTS
350
1E4
  3
XCLIPFRAME
350
1015781
  0
DICTIONARY
  5
3AED
102
{ACAD_REACTORS
330
C
102
}
330
C
100
AcDbDictionary
281
     1
  0
DICTIONARY
  5
3795
102
{ACAD_REACTORS
330
C
102
}
330
C
100
AcDbDictionary
281
     1
  3
ASEBlockHierarchyIndexRecord
350
3796
1001
DCO15
1040
1520072824.462
  0
DICTIONARY
  5
3AAB
102
{ACAD_REACTORS
330
3AAA
102
}
330
3AAA
100
AcDbDictionary
281
     1
  0
XRECORD
  5
3B93
102
{ACAD_REACTORS
330
3B92
102
}
330
3B92
100
AcDbXrecord
280
     1
290
     1
  0
XRECORD
  5
3B95
102
{ACAD_REACTORS
330
3B94
102
}
330
3B94
100
AcDbXrecord
280
     1
290
     1
  0
SORTENTSTABLE
  5
14C2
102
{ACAD_REACTORS
330
14C1
102
}
330
14C1
100
AcDbSortentsTable
330
1F
  0
SORTENTSTABLE
  5
1013317
102
{ACAD_REACTORS
330
1013316
102
}
330
1013316
100
AcDbSortentsTable
330
1013313
  0
SORTENTSTABLE
  5
101352E
102
{ACAD_REACTORS
330
101352D
102
}
330
101352D
100
AcDbSortentsTable
330
101352B
  0
SORTENTSTABLE
  5
101366F
102
{ACAD_REACTORS
330
101366E
102
}
330
101366E
100
AcDbSortentsTable
330
101366D
  0
SORTENTSTABLE
  5
1013676
102
{ACAD_REACTORS
330
1013675
102
}
330
1013675
100
AcDbSortentsTable
330
1013674
  0
ACDBDETAILVIEWSTYLE
  5
4863
102
{ACAD_REACTORS
330
4862
102
}
102
{ACAD_XDICTIONARY
360
1015742
102
}
330
4862
100
AcDbModelDocViewStyle
 70
     0
  3
Imperial24
290
     0
100
AcDbDetailViewStyle
 70
     0
 71
     0
 90
        3
 71
     1
340
11
 62
   256
 40
0.24
340
0
 62
   256
 40
0.24
300

 40
0.36
280
     3
 71
     2
340
16
 90
       25
 62
   256
 71
     3
340
11
 62
   256
 40
0.24
 90
        1
 40
0.75
 90
        1
300
%<\AcVar ViewType \f "%tc1">% %<\AcVar ViewDetailId>%\PVARIA %<\AcVar ViewScale \f "%sn">%
 71
     4
340
16
 90
       25
 62
   256
340
16
 90
       25
 62
   256
280
     0
  0
ACDBDETAILVIEWSTYLE
  5
488E
102
{ACAD_REACTORS
330
4862
102
}
102
{ACAD_XDICTIONARY
360
1015744
102
}
330
4862
100
AcDbModelDocViewStyle
 70
     0
  3
Metric50
290
     0
100
AcDbDetailViewStyle
 70
     0
 71
     0
 90
        3
 71
     1
340
11
 62
   256
 40
5.0
340
0
 62
   256
 40
5.0
300

 40
0.0
280
     1
 71
     2
340
16
 90
       25
 62
   256
 71
     3
340
11
 62
   256
 40
5.0
 90
        0
 40
15.0
 90
        1
300
%<\AcVar ViewDetailId>% (%<\AcVar ViewScale \f "%sn">%)
 71
     4
340
16
 90
       25
 62
   256
340
16
 90
       25
 62
   256
280
     0
  0
LAYOUT
  5
1E
102
{ACAD_REACTORS
330
1A
102
}
330
1A
100
AcDbPlotSettings
  1

  2
HP LaserJet 6P
  4

  6

 40
0.0
 41
0.0
 42
0.0
 43
0.0
 44
0.0
 45
0.0
 46
0.0
 47
0.0
 48
0.0
 49
0.0
140
0.0
141
0.0
142
1.0
143
1.0
 70
   688
 72
     0
 73
     0
 74
     5
  7
monochrome.stb
 75
    16
 76
     0
 77
     2
 78
   300
147
1.0
148
0.0
149
0.0
100
AcDbLayout
  1
Layout1
 70
     1
 71
     1
 10
0.0
 20
0.0
 11
420.0
 21
297.0
 12
0.0
 22
0.0
 32
0.0
 14
1.000000000000000E+20
 24
1.000000000000000E+20
 34
1.000000000000000E+20
 15
-1.000000000000000E+20
 25
-1.000000000000000E+20
 35
-1.000000000000000E+20
146
0.0
 13
0.0
 23
0.0
 33
0.0
 16
1.0
 26
0.0
 36
0.0
 17
0.0
 27
1.0
 37
0.0
 76
     0
330
1B
  0
LAYOUT
  5
26
102
{ACAD_REACTORS
330
1A
102
}
330
1A
100
AcDbPlotSettings
  1

  2
HP LaserJet 6P
  4

  6

 40
0.0
 41
0.0
 42
0.0
 43
0.0
 44
0.0
 45
0.0
 46
0.0
 47
0.0
 48
0.0
 49
0.0
140
0.0
141
0.0
142
1.0
143
1.0
 70
   688
 72
     0
 73
     0
 74
     5
  7
monochrome.stb
 75
    16
 76
     0
 77
     2
 78
   300
147
1.0
148
0.0
149
0.0
100
AcDbLayout
  1
Layout2
 70
     1
 71
     2
 10
0.0
 20
0.0
 11
12.0
 21
9.0
 12
0.0
 22
0.0
 32
0.0
 14
0.0
 24
0.0
 34
0.0
 15
0.0
 25
0.0
 35
0.0
146
0.0
 13
0.0
 23
0.0
 33
0.0
 16
1.0
 26
0.0
 36
0.0
 17
0.0
 27
1.0
 37
0.0
 76
     0
330
23
  0
LAYOUT
  5
22
102
{ACAD_REACTORS
330
1A
102
}
330
1A
100
AcDbPlotSettings
  1

  2
PDFCreator
  4
A4
  6

 40
3.174999952316284
 41
3.174999952316284
 42
3.175003051757812
 43
3.17498779296875
 44
209.8886566162109
 45
297.0530090332031
 46
83.24345006736577
 47
116.3748465858123
 48
0.0
 49
0.0
140
0.0
141
0.0
142
1.0
143
25.0
 70
 11940
 72
     1
 73
     0
 74
     1
  7
monochrome.stb
 75
     0
 76
     0
 77
     2
 78
   300
147
0.04
148
-23432.36334092442
149
-2033.748631153401
100
AcDbLayout
  1
Model
 70
     1
 71
     0
 10
0.0
 20
0.0
 11
12.0
 21
9.0
 12
0.0
 22
0.0
 32
0.0
 14
0.0
 24
0.0
 34
0.0
 15
0.0
 25
0.0
 35
0.0
146
0.0
 13
0.0
 23
0.0
 33
0.0
 16
1.0
 26
0.0
 36
0.0
 17
0.0
 27
1.0
 37
0.0
 76
     0
330
1F
331
37BF
1001
ACAD_PSEXT
1000
PDFCreator
1000
PDFCreator
1000
pdfcmon
1000
PDFCreator Printer
1070
     0
  0
MATERIAL
  5
37C3
102
{ACAD_REACTORS
330
37C1
102
}
330
37C1
100
AcDbMaterial
  1
ByBlock
 72
     1
 94
       63
  0
MATERIAL
  5
37C2
102
{ACAD_REACTORS
330
37C1
102
}
330
37C1
100
AcDbMaterial
  1
ByLayer
 72
     1
 94
       63
  0
MATERIAL
  5
37C4
102
{ACAD_REACTORS
330
37C1
102
}
102
{ACAD_XDICTIONARY
360
5066
102
}
330
37C1
100
AcDbMaterial
  1
Global
 72
     1
 94
       63
  0
MLEADERSTYLE
  5
3A6A
102
{ACAD_REACTORS
330
3A69
102
}
330
3A69
100
AcDbMLeaderStyle
179
     2
170
     2
171
     1
172
     0
 90
        2
 40
0.0
 41
0.0
173
     1
 91
-1056964608
340
14
 92
       -2
290
     1
 42
0.09
291
     1
 43
0.36
  3
Standard
341
0
 44
0.18
300

342
11
174
     1
178
     6
175
     1
176
     0
 93
-1056964608
 45
0.18
292
     0
297
     0
 46
0.18
343
0
 94
-1056964608
 47
1.0
 49
1.0
140
1.0
293
     1
141
0.0
294
     1
177
     0
142
1.0
295
     0
296
     0
143
0.125
271
     0
272
     9
273
     9
  0
MLINESTYLE
  5
18
102
{ACAD_REACTORS
330
17
102
}
330
17
100
AcDbMlineStyle
  2
STANDARD
 70
     0
  3

 62
   256
 51
90.0
 52
90.0
 71
     2
 49
0.5
 62
   256
  6
BYLAYER
 49
-0.5
 62
   256
  6
BYLAYER
  0
ACDBPLACEHOLDER
  5
F
102
{ACAD_REACTORS
330
E
102
}
330
E
  0
ACDBPLACEHOLDER
  5
28
102
{ACAD_REACTORS
330
E
102
}
330
E
  0
SCALE
  5
3A48
102
{ACAD_REACTORS
330
3A47
102
}
330
3A47
100
AcDbScale
 70
     0
300
1:1
140
1.0
141
1.0
290
     1
  0
SCALE
  5
3A49
102
{ACAD_REACTORS
330
3A47
102
}
330
3A47
100
AcDbScale
 70
     0
300
1:2
140
1.0
141
2.0
290
     0
  0
SCALE
  5
3A4A
102
{ACAD_REACTORS
330
3A47
102
}
330
3A47
100
AcDbScale
 70
     0
300
1:4
140
1.0
141
4.0
290
     0
  0
SCALE
  5
3A4B
102
{ACAD_REACTORS
330
3A47
102
}
330
3A47
100
AcDbScale
 70
     0
300
1:5
140
1.0
141
5.0
290
     0
  0
SCALE
  5
3A4C
102
{ACAD_REACTORS
330
3A47
102
}
330
3A47
100
AcDbScale
 70
     0
300
1:8
140
1.0
141
8.0
290
     0
  0
SCALE
  5
3A4D
102
{ACAD_REACTORS
330
3A47
102
}
330
3A47
100
AcDbScale
 70
     0
300
1:10
140
1.0
141
10.0
290
     0
  0
SCALE
  5
3A4E
102
{ACAD_REACTORS
330
3A47
102
}
330
3A47
100
AcDbScale
 70
     0
300
1:16
140
1.0
141
16.0
290
     0
  0
SCALE
  5
3A4F
102
{ACAD_REACTORS
330
3A47
102
}
330
3A47
100
AcDbScale
 70
     0
300
1:20
140
1.0
141
20.0
290
     0
  0
SCALE
  5
3A50
102
{ACAD_REACTORS
330
3A47
102
}
330
3A47
100
AcDbScale
 70
     0
300
1:30
140
1.0
141
30.0
290
     0
  0
SCALE
  5
3A51
102
{ACAD_REACTORS
330
3A47
102
}
330
3A47
100
AcDbScale
 70
     0
300
1:40
140
1.0
141
40.0
290
     0
  0
SCALE
  5
3A52
102
{ACAD_REACTORS
330
3A47
102
}
330
3A47
100
AcDbScale
 70
     0
300
1:50
140
1.0
141
50.0
290
     0
  0
SCALE
  5
3A53
102
{ACAD_REACTORS
330
3A47
102
}
330
3A47
100
AcDbScale
 70
     0
300
1:100
140
1.0
141
100.0
290
     0
  0
SCALE
  5
3A54
102
{ACAD_REACTORS
330
3A47
102
}
330
3A47
100
AcDbScale
 70
     0
300
2:1
140
2.0
141
1.0
290
     0
  0
SCALE
  5
3A55
102
{ACAD_REACTORS
330
3A47
102
}
330
3A47
100
AcDbScale
 70
     0
300
4:1
140
4.0
141
1.0
290
     0
  0
SCALE
  5
3A56
102
{ACAD_REACTORS
330
3A47
102
}
330
3A47
100
AcDbScale
 70
     0
300
8:1
140
8.0
141
1.0
290
     0
  0
SCALE
  5
3A57
102
{ACAD_REACTORS
330
3A47
102
}
330
3A47
100
AcDbScale
 70
     0
300
10:1
140
10.0
141
1.0
290
     0
  0
SCALE
  5
3A58
102
{ACAD_REACTORS
330
3A47
102
}
330
3A47
100
AcDbScale
 70
     0
300
100:1
140
100.0
141
1.0
290
     0
  0
SCALE
  5
3A59
102
{ACAD_REACTORS
330
3A47
102
}
330
3A47
100
AcDbScale
 70
     0
300
1/128" = 1'-0"
140
0.0078125
141
12.0
290
     0
  0
SCALE
  5
3A5A
102
{ACAD_REACTORS
330
3A47
102
}
330
3A47
100
AcDbScale
 70
     0
300
1/64" = 1'-0"
140
0.015625
141
12.0
290
     0
  0
SCALE
  5
3A5B
102
{ACAD_REACTORS
330
3A47
102
}
330
3A47
100
AcDbScale
 70
     0
300
1/32" = 1'-0"
140
0.03125
141
12.0
290
     0
  0
SCALE
  5
3A5C
102
{ACAD_REACTORS
330
3A47
102
}
330
3A47
100
AcDbScale
 70
     0
300
1/16" = 1'-0"
140
0.0625
141
12.0
290
     0
  0
SCALE
  5
3A5D
102
{ACAD_REACTORS
330
3A47
102
}
330
3A47
100
AcDbScale
 70
     0
300
3/32" = 1'-0"
140
0.09375
141
12.0
290
     0
  0
SCALE
  5
3A5E
102
{ACAD_REACTORS
330
3A47
102
}
330
3A47
100
AcDbScale
 70
     0
300
1/8" = 1'-0"
140
0.125
141
12.0
290
     0
  0
SCALE
  5
3A5F
102
{ACAD_REACTORS
330
3A47
102
}
330
3A47
100
AcDbScale
 70
     0
300
3/16" = 1'-0"
140
0.1875
141
12.0
290
     0
  0
SCALE
  5
3A60
102
{ACAD_REACTORS
330
3A47
102
}
330
3A47
100
AcDbScale
 70
     0
300
1/4" = 1'-0"
140
0.25
141
12.0
290
     0
  0
SCALE
  5
3A61
102
{ACAD_REACTORS
330
3A47
102
}
330
3A47
100
AcDbScale
 70
     0
300
3/8" = 1'-0"
140
0.375
141
12.0
290
     0
  0
SCALE
  5
3A62
102
{ACAD_REACTORS
330
3A47
102
}
330
3A47
100
AcDbScale
 70
     0
300
1/2" = 1'-0"
140
0.5
141
12.0
290
     0
  0
SCALE
  5
3A63
102
{ACAD_REACTORS
330
3A47
102
}
330
3A47
100
AcDbScale
 70
     0
300
3/4" = 1'-0"
140
0.75
141
12.0
290
     0
  0
SCALE
  5
3A64
102
{ACAD_REACTORS
330
3A47
102
}
330
3A47
100
AcDbScale
 70
     0
300
1" = 1'-0"
140
1.0
141
12.0
290
     0
  0
SCALE
  5
3A65
102
{ACAD_REACTORS
330
3A47
102
}
330
3A47
100
AcDbScale
 70
     0
300
1-1/2" = 1'-0"
140
1.5
141
12.0
290
     0
  0
SCALE
  5
3A66
102
{ACAD_REACTORS
330
3A47
102
}
330
3A47
100
AcDbScale
 70
     0
300
3" = 1'-0"
140
3.0
141
12.0
290
     0
  0
SCALE
  5
3A67
102
{ACAD_REACTORS
330
3A47
102
}
330
3A47
100
AcDbScale
 70
     0
300
6" = 1'-0"
140
6.0
141
12.0
290
     0
  0
SCALE
  5
3A68
102
{ACAD_REACTORS
330
3A47
102
}
330
3A47
100
AcDbScale
 70
     0
300
1'-0" = 1'-0"
140
12.0
141
12.0
290
     0
  0
ACDBSECTIONVIEWSTYLE
  5
4861
102
{ACAD_REACTORS
330
4860
102
}
102
{ACAD_XDICTIONARY
360
1015746
102
}
330
4860
100
AcDbModelDocViewStyle
 70
     0
  3
Imperial24
290
     0
100
AcDbSectionViewStyle
 70
     0
 71
     0
 90
       78
 71
     1
340
11
 62
   256
 40
0.24
340
0
340
0
 62
   256
 40
0.24
300
I, O, Q, S, X, Z
 40
0.48
 90
        3
 40
0.18
 90
        1
 71
     2
340
16
 90
       25
 62
   256
340
16
 90
       50
 62
   256
 40
0.24
 40
0.0
 40
0.24
 71
     3
340
11
 62
   256
 40
0.24
 90
        1
 40
0.75
 90
        1
300
%<\AcVar ViewType \f "%tc1">% %<\AcVar ViewSectionStartId>%-%<\AcVar ViewSectionEndId>%\PVARIA %<\AcVar ViewScale \f "%sn">%
 71
     4
 62
   256
 62
   257
300
ANSI31
 40
1.0
 90
        0
290
     0
290
     0
 90
        6
 40
0.0
 40
1.570796326794897
 40
0.2617993877991494
 40
1.308996938995747
 40
-0.2617993877991494
 40
1.832595714594046
  0
ACDBSECTIONVIEWSTYLE
  5
488D
102
{ACAD_REACTORS
330
4860
102
}
102
{ACAD_XDICTIONARY
360
1015748
102
}
330
4860
100
AcDbModelDocViewStyle
 70
     0
  3
Metric50
290
     0
100
AcDbSectionViewStyle
 70
     0
 71
     0
 90
      102
 71
     1
340
11
 62
   256
 40
5.0
340
0
340
0
 62
   256
 40
5.0
300
I, O, Q, S, X, Z
 40
10.0
 90
        0
 40
2.5
 90
        0
 71
     2
340
16
 90
       25
 62
   256
340
16
 90
       50
 62
   256
 40
5.0
 40
2.5
 40
5.0
 71
     3
340
11
 62
   256
 40
5.0
 90
        0
 40
15.0
 90
        1
300
%<\AcVar ViewSectionStartId>%-%<\AcVar ViewSectionEndId>% (%<\AcVar ViewScale \f "%sn">%)
 71
     4
 62
   256
 62
   257
300
ANSI31
 40
1.0
 90
        0
290
     0
290
     0
 90
        6
 40
0.0
 40
1.570796326794897
 40
0.2617993877991494
 40
1.308996938995747
 40
-0.2617993877991494
 40
1.832595714594046
  0
TABLESTYLE
  5
37D8
102
{ACAD_REACTORS
330
37D7
102
}
102
{ACAD_XDICTIONARY
360
101574A
102
}
330
37D7
100
AcDbTableStyle
  3
Standard
 70
     0
 71
     0
 40
0.06
 41
0.06
280
     0
281
     0
  7
Standard
140
0.18
170
     2
 62
     0
 63
   257
283
     0
 90
      512
 91
        0
  1

274
    -2
284
     1
 64
     0
275
    -2
285
     1
 65
     0
276
    -2
286
     1
 66
     0
277
    -2
287
     1
 67
     0
278
    -2
288
     1
 68
     0
279
    -2
289
     1
 69
     0
  7
Standard
140
0.25
170
     5
 62
     0
 63
   257
283
     0
 90
      512
 91
        0
  1

274
    -2
284
     1
 64
     0
275
    -2
285
     1
 65
     0
276
    -2
286
     1
 66
     0
277
    -2
287
     1
 67
     0
278
    -2
288
     1
 68
     0
279
    -2
289
     1
 69
     0
  7
Standard
140
0.18
170
     5
 62
     0
 63
   257
283
     0
 90
      512
 91
        0
  1

274
    -2
284
     1
 64
     0
275
    -2
285
     1
 65
     0
276
    -2
286
     1
 66
     0
277
    -2
287
     1
 67
     0
278
    -2
288
     1
 68
     0
279
    -2
289
     1
 69
     0
  0
VISUALSTYLE
  5
37CB
102
{ACAD_REACTORS
330
37C5
102
}
102
{ACAD_XDICTIONARY
360
101574C
102
}
330
37C5
100
AcDbVisualStyle
  2
2dWireframe
 70
     4
177
     2
291
     0
 71
     0
176
     1
 72
     2
176
     1
 73
     0
176
     1
 90
        0
176
     1
 40
0.6
176
     1
 41
30.0
176
     1
 62
     5
 63
     7
421
 16777215
176
     1
 74
     1
176
     1
 91
        4
176
     1
 64
     7
176
     1
 65
   257
176
     1
 75
     1
176
     1
175
     1
176
     1
 42
1.0
176
     1
 92
        0
176
     1
 66
   257
176
     1
 43
1.0
176
     1
 76
     1
176
     1
 77
     6
176
     1
 78
     2
176
     1
 67
     7
176
     1
 79
     5
176
     1
170
     0
176
     1
171
     0
176
     1
290
     0
176
     1
 93
        1
176
     1
 44
0.0
176
     1
173
     0
176
     1
  0
VISUALSTYLE
  5
37CD
102
{ACAD_REACTORS
330
37C5
102
}
102
{ACAD_XDICTIONARY
360
101574E
102
}
330
37C5
100
AcDbVisualStyle
  2
3D Hidden
 70
     6
177
     2
291
     0
 71
     1
176
     1
 72
     2
176
     1
 73
     2
176
     1
 90
        0
176
     1
 40
0.6
176
     1
 41
30.0
176
     1
 62
     5
 63
     7
421
 16777215
176
     1
 74
     2
176
     1
 91
        2
176
     1
 64
     7
176
     1
 65
   257
176
     1
 75
     2
176
     1
175
     1
176
     1
 42
40.0
176
     1
 92
        0
176
     1
 66
   257
176
     1
 43
1.0
176
     1
 76
     1
176
     1
 77
     6
176
     1
 78
     2
176
     1
 67
     7
176
     1
 79
     3
176
     1
170
     0
176
     1
171
     0
176
     1
290
     0
176
     1
 93
        1
176
     1
 44
0.0
176
     1
173
     0
176
     1
  0
VISUALSTYLE
  5
37CC
102
{ACAD_REACTORS
330
37C5
102
}
102
{ACAD_XDICTIONARY
360
1015750
102
}
330
37C5
100
AcDbVisualStyle
  2
3dWireframe
 70
     5
177
     2
291
     0
 71
     0
176
     1
 72
     2
176
     1
 73
     0
176
     1
 90
        0
176
     1
 40
0.6
176
     1
 41
30.0
176
     1
 62
     5
 63
     7
421
 16777215
176
     1
 74
     1
176
     1
 91
        4
176
     1
 64
     7
176
     1
 65
   257
176
     1
 75
     1
176
     1
175
     1
176
     1
 42
1.0
176
     1
 92
        0
176
     1
 66
   257
176
     1
 43
1.0
176
     1
 76
     1
176
     1
 77
     6
176
     1
 78
     2
176
     1
 67
     7
176
     1
 79
     5
176
     1
170
     0
176
     1
171
     0
176
     1
290
     0
176
     1
 93
        1
176
     1
 44
0.0
176
     1
173
     0
176
     1
  0
VISUALSTYLE
  5
37CA
102
{ACAD_REACTORS
330
37C5
102
}
102
{ACAD_XDICTIONARY
360
1015752
102
}
330
37C5
100
AcDbVisualStyle
  2
Basic
 70
     7
177
     2
291
     1
 71
     1
176
     1
 72
     0
176
     1
 73
     1
176
     1
 90
        0
176
     1
 40
0.6
176
     1
 41
30.0
176
     1
 62
     5
 63
     7
421
 16777215
176
     1
 74
     0
176
     1
 91
        4
176
     1
 64
     7
176
     1
 65
   257
176
     1
 75
     1
176
     1
175
     1
176
     1
 42
1.0
176
     1
 92
        8
176
     1
 66
     7
176
     1
 43
1.0
176
     1
 76
     1
176
     1
 77
     6
176
     1
 78
     2
176
     1
 67
     7
176
     1
 79
     5
176
     1
170
     0
176
     1
171
     0
176
     1
290
     0
176
     1
 93
        1
176
     1
 44
0.0
176
     1
173
     0
176
     1
  0
VISUALSTYLE
  5
37D1
102
{ACAD_REACTORS
330
37C5
102
}
102
{ACAD_XDICTIONARY
360
1015754
102
}
330
37C5
100
AcDbVisualStyle
  2
Brighten
 70
    12
177
     2
291
     1
 71
     2
176
     1
 72
     2
176
     1
 73
     0
176
     1
 90
        0
176
     1
 40
0.6
176
     1
 41
30.0
176
     1
 62
     5
 63
     7
421
 16777215
176
     1
 74
     1
176
     1
 91
        4
176
     1
 64
     7
176
     1
 65
   257
176
     1
 75
     1
176
     1
175
     1
176
     1
 42
1.0
176
     1
 92
        8
176
     1
 66
     7
176
     1
 43
1.0
176
     1
 76
     1
176
     1
 77
     6
176
     1
 78
     2
176
     1
 67
     7
176
     1
 79
     5
176
     1
170
     0
176
     1
171
     0
176
     1
290
     0
176
     1
 93
        1
176
     1
 44
50.0
176
     1
173
     0
176
     1
  0
VISUALSTYLE
  5
37D5
102
{ACAD_REACTORS
330
37C5
102
}
102
{ACAD_XDICTIONARY
360
1015756
102
}
330
37C5
100
AcDbVisualStyle
  2
ColorChange
 70
    16
177
     2
291
     1
 71
     2
176
     1
 72
     2
176
     1
 73
     3
176
     1
 90
        0
176
     1
 40
0.6
176
     1
 41
30.0
176
     1
 62
     5
 63
     8
421
  8421504
176
     1
 74
     1
176
     1
 91
        4
176
     1
 64
     7
176
     1
 65
   257
176
     1
 75
     1
176
     1
175
     1
176
     1
 42
1.0
176
     1
 92
        8
176
     1
 66
     8
424
  8421504
176
     1
 43
1.0
176
     1
 76
     1
176
     1
 77
     6
176
     1
 78
     2
176
     1
 67
     7
176
     1
 79
     5
176
     1
170
     0
176
     1
171
     0
176
     1
290
     0
176
     1
 93
        1
176
     1
 44
0.0
176
     1
173
     0
176
     1
  0
VISUALSTYLE
  5
37CE
102
{ACAD_REACTORS
330
37C5
102
}
102
{ACAD_XDICTIONARY
360
1015758
102
}
330
37C5
100
AcDbVisualStyle
  2
Conceptual
 70
     9
177
     2
291
     0
 71
     3
176
     1
 72
     2
176
     1
 73
     0
176
     1
 90
        0
176
     1
 40
0.6
176
     1
 41
30.0
176
     1
 62
     5
 63
     7
421
 16777215
176
     1
 74
     2
176
     1
 91
        2
176
     1
 64
     7
176
     1
 65
   257
176
     1
 75
     1
176
     1
175
     1
176
     1
 42
40.0
176
     1
 92
        8
176
     1
 66
     7
176
     1
 43
1.0
176
     1
 76
     1
176
     1
 77
     6
176
     1
 78
     2
176
     1
 67
     7
176
     1
 79
     3
176
     1
170
     0
176
     1
171
     0
176
     1
290
     0
176
     1
 93
        1
176
     1
 44
0.0
176
     1
173
     0
176
     1
  0
VISUALSTYLE
  5
37D0
102
{ACAD_REACTORS
330
37C5
102
}
102
{ACAD_XDICTIONARY
360
101575A
102
}
330
37C5
100
AcDbVisualStyle
  2
Dim
 70
    11
177
     2
291
     1
 71
     2
176
     1
 72
     2
176
     1
 73
     0
176
     1
 90
        0
176
     1
 40
0.6
176
     1
 41
30.0
176
     1
 62
     5
 63
     7
421
 16777215
176
     1
 74
     1
176
     1
 91
        4
176
     1
 64
     7
176
     1
 65
   257
176
     1
 75
     1
176
     1
175
     1
176
     1
 42
1.0
176
     1
 92
        8
176
     1
 66
     7
176
     1
 43
1.0
176
     1
 76
     1
176
     1
 77
     6
176
     1
 78
     2
176
     1
 67
     7
176
     1
 79
     5
176
     1
170
     0
176
     1
171
     0
176
     1
290
     0
176
     1
 93
        1
176
     1
 44
-50.0
176
     1
173
     0
176
     1
  0
VISUALSTYLE
  5
3A46
102
{ACAD_REACTORS
330
37C5
102
}
102
{ACAD_XDICTIONARY
360
101575C
102
}
330
37C5
100
AcDbVisualStyle
  2
EdgeColorOff
 70
    22
177
     2
291
     1
 71
     2
176
     0
 72
     2
176
     0
 73
     0
176
     0
 90
        0
176
     0
 40
0.6
176
     0
 41
30.0
176
     0
 62
     5
 63
     7
421
 16777215
176
     0
 74
     1
176
     0
 91
        4
176
     0
 64
     7
176
     0
 65
   257
176
     0
 75
     1
176
     0
175
     1
176
     0
 42
1.0
176
     0
 92
        8
176
     2
 66
     7
176
     0
 43
1.0
176
     0
 76
     1
176
     0
 77
     6
176
     0
 78
     2
176
     0
 67
     7
176
     0
 79
     5
176
     0
170
     0
176
     0
171
     0
176
     0
290
     0
176
     0
 93
        1
176
     0
 44
0.0
176
     0
173
     0
176
     0
  0
VISUALSTYLE
  5
37D4
102
{ACAD_REACTORS
330
37C5
102
}
102
{ACAD_XDICTIONARY
360
101575E
102
}
330
37C5
100
AcDbVisualStyle
  2
Facepattern
 70
    15
177
     2
291
     1
 71
     2
176
     1
 72
     2
176
     1
 73
     0
176
     1
 90
        0
176
     1
 40
0.6
176
     1
 41
30.0
176
     1
 62
     5
 63
     7
421
 16777215
176
     1
 74
     1
176
     1
 91
        4
176
     1
 64
     7
176
     1
 65
   257
176
     1
 75
     1
176
     1
175
     1
176
     1
 42
1.0
176
     1
 92
        8
176
     1
 66
     7
176
     1
 43
1.0
176
     1
 76
     1
176
     1
 77
     6
176
     1
 78
     2
176
     1
 67
     7
176
     1
 79
     5
176
     1
170
     0
176
     1
171
     0
176
     1
290
     0
176
     1
 93
        1
176
     1
 44
0.0
176
     1
173
     0
176
     1
  0
VISUALSTYLE
  5
37C6
102
{ACAD_REACTORS
330
37C5
102
}
102
{ACAD_XDICTIONARY
360
1015760
102
}
330
37C5
100
AcDbVisualStyle
  2
Flat
 70
     0
177
     2
291
     1
 71
     2
176
     1
 72
     1
176
     1
 73
     1
176
     1
 90
        2
176
     1
 40
0.6
176
     1
 41
30.0
176
     1
 62
     5
 63
     7
421
 16777215
176
     1
 74
     0
176
     1
 91
        4
176
     1
 64
     7
176
     1
 65
   257
176
     1
 75
     1
176
     1
175
     1
176
     1
 42
1.0
176
     1
 92
        8
176
     1
 66
     7
176
     1
 43
1.0
176
     1
 76
     1
176
     1
 77
     6
176
     1
 78
     2
176
     1
 67
     7
176
     1
 79
     5
176
     1
170
     0
176
     1
171
     0
176
     1
290
     0
176
     1
 93
       13
176
     1
 44
0.0
176
     1
173
     0
176
     1
  0
VISUALSTYLE
  5
37C7
102
{ACAD_REACTORS
330
37C5
102
}
102
{ACAD_XDICTIONARY
360
1015762
102
}
330
37C5
100
AcDbVisualStyle
  2
FlatWithEdges
 70
     1
177
     2
291
     1
 71
     2
176
     1
 72
     1
176
     1
 73
     1
176
     1
 90
        2
176
     1
 40
0.6
176
     1
 41
30.0
176
     1
 62
     5
 63
     7
421
 16777215
176
     1
 74
     1
176
     1
 91
        4
176
     1
 64
     7
176
     1
 65
   257
176
     1
 75
     1
176
     1
175
     1
176
     1
 42
1.0
176
     1
 92
        0
176
     1
 66
   257
176
     1
 43
1.0
176
     1
 76
     1
176
     1
 77
     6
176
     1
 78
     2
176
     1
 67
     7
176
     1
 79
     5
176
     1
170
     0
176
     1
171
     0
176
     1
290
     0
176
     1
 93
       13
176
     1
 44
0.0
176
     1
173
     0
176
     1
  0
VISUALSTYLE
  5
37C8
102
{ACAD_REACTORS
330
37C5
102
}
102
{ACAD_XDICTIONARY
360
1015764
102
}
330
37C5
100
AcDbVisualStyle
  2
Gouraud
 70
     2
177
     2
291
     1
 71
     2
176
     1
 72
     2
176
     1
 73
     1
176
     1
 90
        2
176
     1
 40
0.6
176
     1
 41
30.0
176
     1
 62
     5
 63
     7
421
 16777215
176
     1
 74
     0
176
     1
 91
        4
176
     1
 64
     7
176
     1
 65
   257
176
     1
 75
     1
176
     1
175
     1
176
     1
 42
1.0
176
     1
 92
        0
176
     1
 66
     7
176
     1
 43
1.0
176
     1
 76
     1
176
     1
 77
     6
176
     1
 78
     2
176
     1
 67
     7
176
     1
 79
     5
176
     1
170
     0
176
     1
171
     0
176
     1
290
     0
176
     1
 93
       13
176
     1
 44
0.0
176
     1
173
     0
176
     1
  0
VISUALSTYLE
  5
37C9
102
{ACAD_REACTORS
330
37C5
102
}
102
{ACAD_XDICTIONARY
360
1015766
102
}
330
37C5
100
AcDbVisualStyle
  2
GouraudWithEdges
 70
     3
177
     2
291
     1
 71
     2
176
     1
 72
     2
176
     1
 73
     1
176
     1
 90
        2
176
     1
 40
0.6
176
     1
 41
30.0
176
     1
 62
     5
 63
     7
421
 16777215
176
     1
 74
     1
176
     1
 91
        4
176
     1
 64
     7
176
     1
 65
   257
176
     1
 75
     1
176
     1
175
     1
176
     1
 42
1.0
176
     1
 92
        0
176
     1
 66
   257
176
     1
 43
1.0
176
     1
 76
     1
176
     1
 77
     6
176
     1
 78
     2
176
     1
 67
     7
176
     1
 79
     5
176
     1
170
     0
176
     1
171
     0
176
     1
290
     0
176
     1
 93
       13
176
     1
 44
0.0
176
     1
173
     0
176
     1
  0
VISUALSTYLE
  5
485A
102
{ACAD_REACTORS
330
37C5
102
}
102
{ACAD_XDICTIONARY
360
1015768
102
}
330
37C5
100
AcDbVisualStyle
  2
Hidden
 70
     6
177
     2
291
     0
 71
     1
176
     1
 72
     2
176
     1
 73
     2
176
     1
 90
        0
176
     1
 40
0.6
176
     1
 41
30.0
176
     1
 62
     5
 63
     7
421
 16777215
176
     1
 74
     2
176
     1
 91
        2
176
     1
 64
     7
176
     1
 65
   257
176
     1
 75
     2
176
     1
175
     1
176
     1
 42
40.0
176
     1
 92
        0
176
     1
 66
   257
176
     1
 43
1.0
176
     1
 76
     1
176
     1
 77
     6
176
     1
 78
     2
176
     1
 67
     7
176
     1
 79
     3
176
     1
170
     0
176
     1
171
     0
176
     1
290
     0
176
     1
 93
        1
176
     1
 44
0.0
176
     1
173
     0
176
     1
  0
VISUALSTYLE
  5
3A44
102
{ACAD_REACTORS
330
37C5
102
}
102
{ACAD_XDICTIONARY
360
101576A
102
}
330
37C5
100
AcDbVisualStyle
  2
JitterOff
 70
    20
177
     2
291
     1
 71
     2
176
     0
 72
     2
176
     0
 73
     0
176
     0
 90
        0
176
     0
 40
0.6
176
     0
 41
30.0
176
     0
 62
     5
 63
     7
421
 16777215
176
     0
 74
     1
176
     0
 91
        4
176
     0
 64
     7
176
     0
 65
   257
176
     0
 75
     1
176
     0
175
     1
176
     0
 42
1.0
176
     0
 92
       10
176
     2
 66
     7
176
     0
 43
1.0
176
     0
 76
     1
176
     0
 77
     6
176
     0
 78
     2
176
     0
 67
     7
176
     0
 79
     5
176
     0
170
     0
176
     0
171
     0
176
     0
290
     0
176
     0
 93
        1
176
     0
 44
0.0
176
     0
173
     0
176
     0
  0
VISUALSTYLE
  5
37D3
102
{ACAD_REACTORS
330
37C5
102
}
102
{ACAD_XDICTIONARY
360
101576C
102
}
330
37C5
100
AcDbVisualStyle
  2
Linepattern
 70
    14
177
     2
291
     1
 71
     2
176
     1
 72
     2
176
     1
 73
     0
176
     1
 90
        0
176
     1
 40
0.6
176
     1
 41
30.0
176
     1
 62
     5
 63
     7
421
 16777215
176
     1
 74
     1
176
     1
 91
        4
176
     1
 64
     7
176
     1
 65
   257
176
     1
 75
     7
176
     1
175
     7
176
     1
 42
1.0
176
     1
 92
        8
176
     1
 66
     7
176
     1
 43
1.0
176
     1
 76
     1
176
     1
 77
     6
176
     1
 78
     2
176
     1
 67
     7
176
     1
 79
     5
176
     1
170
     0
176
     1
171
     0
176
     1
290
     0
176
     1
 93
        1
176
     1
 44
0.0
176
     1
173
     0
176
     1
  0
VISUALSTYLE
  5
3A45
102
{ACAD_REACTORS
330
37C5
102
}
102
{ACAD_XDICTIONARY
360
101576E
102
}
330
37C5
100
AcDbVisualStyle
  2
OverhangOff
 70
    21
177
     2
291
     1
 71
     2
176
     0
 72
     2
176
     0
 73
     0
176
     0
 90
        0
176
     0
 40
0.6
176
     0
 41
30.0
176
     0
 62
     5
 63
     7
421
 16777215
176
     0
 74
     1
176
     0
 91
        4
176
     0
 64
     7
176
     0
 65
   257
176
     0
 75
     1
176
     0
175
     1
176
     0
 42
1.0
176
     0
 92
        9
176
     2
 66
     7
176
     0
 43
1.0
176
     0
 76
     1
176
     0
 77
     6
176
     0
 78
     2
176
     0
 67
     7
176
     0
 79
     5
176
     0
170
     0
176
     0
171
     0
176
     0
290
     0
176
     0
 93
        1
176
     0
 44
0.0
176
     0
173
     0
176
     0
  0
VISUALSTYLE
  5
37CF
102
{ACAD_REACTORS
330
37C5
102
}
102
{ACAD_XDICTIONARY
360
1015770
102
}
330
37C5
100
AcDbVisualStyle
  2
Realistic
 70
     8
177
     2
291
     0
 71
     2
176
     1
 72
     2
176
     1
 73
     0
176
     1
 90
        0
176
     1
 40
0.6
176
     1
 41
30.0
176
     1
 62
     5
 63
     7
421
 16777215
176
     1
 74
     1
176
     1
 91
        0
176
     1
 64
     7
176
     1
 65
   257
176
     1
 75
     1
176
     1
175
     1
176
     1
 42
1.0
176
     1
 92
        8
176
     1
 66
     8
424
  7895160
176
     1
 43
1.0
176
     1
 76
     1
176
     1
 77
     6
176
     1
 78
     2
176
     1
 67
     7
176
     1
 79
     5
176
     1
170
     0
176
     1
171
     0
176
     1
290
     0
176
     1
 93
       13
176
     1
 44
0.0
176
     1
173
     0
176
     1
  0
VISUALSTYLE
  5
485F
102
{ACAD_REACTORS
330
37C5
102
}
102
{ACAD_XDICTIONARY
360
1015772
102
}
330
37C5
100
AcDbVisualStyle
  2
Shaded
 70
    27
177
     2
291
     0
 71
     2
176
     1
 72
     2
176
     1
 73
     1
176
     1
 90
        2
176
     1
 40
0.6
176
     1
 41
30.0
176
     1
 62
     5
 63
     7
421
 16777215
176
     1
 74
     0
176
     1
 91
        4
176
     1
 64
     7
176
     1
 65
   257
176
     1
 75
     1
176
     1
175
     1
176
     1
 42
1.0
176
     1
 92
        8
176
     1
 66
   257
176
     1
 43
1.0
176
     1
 76
     1
176
     1
 77
     6
176
     1
 78
     2
176
     1
 67
     8
425
  7895160
176
     1
 79
     3
176
     1
170
     0
176
     1
171
     0
176
     1
290
     0
176
     1
 93
        5
176
     1
 44
0.0
176
     1
173
     0
176
     1
  0
VISUALSTYLE
  5
485E
102
{ACAD_REACTORS
330
37C5
102
}
102
{ACAD_XDICTIONARY
360
1015774
102
}
330
37C5
100
AcDbVisualStyle
  2
Shaded with edges
 70
    26
177
     2
291
     0
 71
     2
176
     1
 72
     2
176
     1
 73
     1
176
     1
 90
        2
176
     1
 40
0.6
176
     1
 41
30.0
176
     1
 62
     5
 63
     7
421
 16777215
176
     1
 74
     1
176
     1
 91
        2
176
     1
 64
     7
176
     1
 65
   257
176
     1
 75
     2
176
     1
175
     1
176
     1
 42
1.0
176
     1
 92
        8
176
     1
 66
   257
176
     1
 43
1.0
176
     1
 76
     1
176
     1
 77
     6
176
     1
 78
     2
176
     1
 67
     7
176
     1
 79
     3
176
     1
170
     0
176
     1
171
     0
176
     1
290
     0
176
     1
 93
        5
176
     1
 44
0.0
176
     1
173
     0
176
     1
  0
VISUALSTYLE
  5
485B
102
{ACAD_REACTORS
330
37C5
102
}
102
{ACAD_XDICTIONARY
360
1015776
102
}
330
37C5
100
AcDbVisualStyle
  2
Shades of Gray
 70
    23
177
     2
291
     0
 71
     2
176
     1
 72
     2
176
     1
 73
     3
176
     1
 90
        0
176
     1
 40
0.6
176
     1
 41
30.0
176
     1
 62
     5
 63
     7
421
 16777215
176
     1
 74
     2
176
     1
 91
        2
176
     1
 64
     7
176
     1
 65
     7
176
     1
 75
     1
176
     1
175
     1
176
     1
 42
40.0
176
     1
 92
        8
176
     1
 66
     7
176
     1
 43
1.0
176
     1
 76
     1
176
     1
 77
     6
176
     1
 78
     2
176
     1
 67
     7
176
     1
 79
     3
176
     1
170
     0
176
     1
171
     0
176
     1
290
     0
176
     1
 93
        1
176
     1
 44
0.0
176
     1
173
     0
176
     1
  0
VISUALSTYLE
  5
485C
102
{ACAD_REACTORS
330
37C5
102
}
102
{ACAD_XDICTIONARY
360
1015778
102
}
330
37C5
100
AcDbVisualStyle
  2
Sketchy
 70
    24
177
     2
291
     0
 71
     1
176
     1
 72
     2
176
     1
 73
     2
176
     1
 90
        0
176
     1
 40
0.6
176
     1
 41
30.0
176
     1
 62
     5
 63
     7
421
 16777215
176
     1
 74
     2
176
     1
 91
        2
176
     1
 64
     7
176
     1
 65
     7
176
     1
 75
     1
176
     1
175
     1
176
     1
 42
40.0
176
     1
 92
       11
176
     1
 66
     7
176
     1
 43
1.0
176
     1
 76
     1
176
     1
 77
     6
176
     1
 78
     2
176
     1
 67
     7
176
     1
 79
     6
176
     1
170
     0
176
     1
171
     0
176
     1
290
     0
176
     1
 93
        1
176
     1
 44
0.0
176
     1
173
     0
176
     1
  0
VISUALSTYLE
  5
37D2
102
{ACAD_REACTORS
330
37C5
102
}
102
{ACAD_XDICTIONARY
360
101577A
102
}
330
37C5
100
AcDbVisualStyle
  2
Thicken
 70
    13
177
     2
291
     1
 71
     2
176
     1
 72
     2
176
     1
 73
     0
176
     1
 90
        0
176
     1
 40
0.6
176
     1
 41
30.0
176
     1
 62
     5
 63
     7
421
 16777215
176
     1
 74
     1
176
     1
 91
        4
176
     1
 64
     7
176
     1
 65
   257
176
     1
 75
     1
176
     1
175
     1
176
     1
 42
1.0
176
     1
 92
       12
176
     1
 66
     7
176
     1
 43
1.0
176
     1
 76
     1
176
     1
 77
     6
176
     1
 78
     2
176
     1
 67
     7
176
     1
 79
     5
176
     1
170
     0
176
     1
171
     0
176
     1
290
     0
176
     1
 93
        1
176
     1
 44
0.0
176
     1
173
     0
176
     1
  0
VISUALSTYLE
  5
4859
102
{ACAD_REACTORS
330
37C5
102
}
102
{ACAD_XDICTIONARY
360
101577C
102
}
330
37C5
100
AcDbVisualStyle
  2
Wireframe
 70
     5
177
     2
291
     0
 71
     0
176
     1
 72
     2
176
     1
 73
     0
176
     1
 90
        0
176
     1
 40
0.6
176
     1
 41
30.0
176
     1
 62
     5
 63
     7
421
 16777215
176
     1
 74
     1
176
     1
 91
        4
176
     1
 64
     7
176
     1
 65
   257
176
     1
 75
     1
176
     1
175
     1
176
     1
 42
1.0
176
     1
 92
        0
176
     1
 66
   257
176
     1
 43
1.0
176
     1
 76
     1
176
     1
 77
     6
176
     1
 78
     2
176
     1
 67
     7
176
     1
 79
     3
176
     1
170
     0
176
     1
171
     0
176
     1
290
     0
176
     1
 93
        1
176
     1
 44
0.0
176
     1
173
     0
176
     1
  0
VISUALSTYLE
  5
485D
102
{ACAD_REACTORS
330
37C5
102
}
102
{ACAD_XDICTIONARY
360
101577E
102
}
330
37C5
100
AcDbVisualStyle
  2
X-Ray
 70
    25
177
     2
291
     0
 71
     2
176
     1
 72
     2
176
     1
 73
     1
176
     1
 90
        1
176
     1
 40
0.5
176
     1
 41
30.0
176
     1
 62
     5
 63
     7
421
 16777215
176
     1
 74
     1
176
     1
 91
        0
176
     1
 64
     7
176
     1
 65
   257
176
     1
 75
     1
176
     1
175
     1
176
     1
 42
1.0
176
     1
 92
        8
176
     1
 66
     7
176
     1
 43
1.0
176
     1
 76
     1
176
     1
 77
     6
176
     1
 78
     2
176
     1
 67
     7
176
     1
 79
     3
176
     1
170
     0
176
     1
171
     0
176
     1
290
     0
176
     1
 93
       13
176
     1
 44
0.0
176
     1
173
     0
176
     1
  0
DICTIONARYVAR
  5
3D2E
102
{ACAD_REACTORS
330
1E3
102
}
330
1E3
100
DictionaryVariables
280
     0
  1
1:1
  0
DICTIONARYVAR
  5
3D2C
102
{ACAD_REACTORS
330
1E3
102
}
330
1E3
100
DictionaryVariables
280
     0
  1
Standard
  0
DICTIONARYVAR
  5
37DD
102
{ACAD_REACTORS
330
1E3
102
}
330
1E3
100
DictionaryVariables
280
     0
  1
Standard
  0
DICTIONARYVAR
  5
530D
102
{ACAD_REACTORS
330
1E3
102
}
330
1E3
100
DictionaryVariables
280
     0
  1
Imperial24
  0
DICTIONARYVAR
  5
530E
102
{ACAD_REACTORS
330
1E3
102
}
330
1E3
100
DictionaryVariables
280
     0
  1
Imperial24
  0
DICTIONARYVAR
  5
3D30
102
{ACAD_REACTORS
330
1E3
102
}
330
1E3
100
DictionaryVariables
280
     0
  1
1
  0
DICTIONARYVAR
  5
3D31
102
{ACAD_REACTORS
330
1E3
102
}
330
1E3
100
DictionaryVariables
280
     0
  1
15
  0
DICTIONARYVAR
  5
3D2F
102
{ACAD_REACTORS
330
1E3
102
}
330
1E3
100
DictionaryVariables
280
     0
  1
0
  0
DICTIONARYVAR
  5
3D2D
102
{ACAD_REACTORS
330
1E3
102
}
330
1E3
100
DictionaryVariables
280
     0
  1
0
  0
DICTIONARYVAR
  5
1E4
102
{ACAD_REACTORS
330
1E3
102
}
330
1E3
100
DictionaryVariables
280
     0
  1
112
  0
DICTIONARYVAR
  5
1015781
102
{ACAD_REACTORS
330
1E3
102
}
330
1E3
100
DictionaryVariables
280
     0
  1
0
  0
XRECORD
  5
3796
102
{ACAD_REACTORS
330
3795
102
}
330
3795
100
AcDbXrecord
280
     1
  0
DICTIONARY
  5
1015742
330
4863
100
AcDbDictionary
280
     1
281
     1
  3
ACAD_XREC_ROUNDTRIP
360
1015743
  0
DICTIONARY
  5
1015744
330
488E
100
AcDbDictionary
280
     1
281
     1
  3
ACAD_XREC_ROUNDTRIP
360
1015745
  0
DICTIONARY
  5
5066
330
37C4
100
AcDbDictionary
280
     1
281
     1
  3
FBXASSET
360
5067
  0
DICTIONARY
  5
1015746
330
4861
100
AcDbDictionary
280
     1
281
     1
  3
ACAD_XREC_ROUNDTRIP
360
1015747
  0
DICTIONARY
  5
1015748
330
488D
100
AcDbDictionary
280
     1
281
     1
  3
ACAD_XREC_ROUNDTRIP
360
1015749
  0
DICTIONARY
  5
101574A
330
37D8
100
AcDbDictionary
280
     1
281
     1
  3
ACAD_ROUNDTRIP_2008_TABLESTYLE_CELLSTYLEMAP
360
101574B
  0
DICTIONARY
  5
101574C
330
37CB
100
AcDbDictionary
280
     1
281
     1
  3
ACAD_XREC_ROUNDTRIP
360
101574D
  0
DICTIONARY
  5
101574E
330
37CD
100
AcDbDictionary
280
     1
281
     1
  3
ACAD_XREC_ROUNDTRIP
360
101574F
  0
DICTIONARY
  5
1015750
330
37CC
100
AcDbDictionary
280
     1
281
     1
  3
ACAD_XREC_ROUNDTRIP
360
1015751
  0
DICTIONARY
  5
1015752
330
37CA
100
AcDbDictionary
280
     1
281
     1
  3
ACAD_XREC_ROUNDTRIP
360
1015753
  0
DICTIONARY
  5
1015754
330
37D1
100
AcDbDictionary
280
     1
281
     1
  3
ACAD_XREC_ROUNDTRIP
360
1015755
  0
DICTIONARY
  5
1015756
330
37D5
100
AcDbDictionary
280
     1
281
     1
  3
ACAD_XREC_ROUNDTRIP
360
1015757
  0
DICTIONARY
  5
1015758
330
37CE
100
AcDbDictionary
280
     1
281
     1
  3
ACAD_XREC_ROUNDTRIP
360
1015759
  0
DICTIONARY
  5
101575A
330
37D0
100
AcDbDictionary
280
     1
281
     1
  3
ACAD_XREC_ROUNDTRIP
360
101575B
  0
DICTIONARY
  5
101575C
330
3A46
100
AcDbDictionary
280
     1
281
     1
  3
ACAD_XREC_ROUNDTRIP
360
101575D
  0
DICTIONARY
  5
101575E
330
37D4
100
AcDbDictionary
280
     1
281
     1
  3
ACAD_XREC_ROUNDTRIP
360
101575F
  0
DICTIONARY
  5
1015760
330
37C6
100
AcDbDictionary
280
     1
281
     1
  3
ACAD_XREC_ROUNDTRIP
360
1015761
  0
DICTIONARY
  5
1015762
330
37C7
100
AcDbDictionary
280
     1
281
     1
  3
ACAD_XREC_ROUNDTRIP
360
1015763
  0
DICTIONARY
  5
1015764
330
37C8
100
AcDbDictionary
280
     1
281
     1
  3
ACAD_XREC_ROUNDTRIP
360
1015765
  0
DICTIONARY
  5
1015766
330
37C9
100
AcDbDictionary
280
     1
281
     1
  3
ACAD_XREC_ROUNDTRIP
360
1015767
  0
DICTIONARY
  5
1015768
330
485A
100
AcDbDictionary
280
     1
281
     1
  3
ACAD_XREC_ROUNDTRIP
360
1015769
  0
DICTIONARY
  5
101576A
330
3A44
100
AcDbDictionary
280
     1
281
     1
  3
ACAD_XREC_ROUNDTRIP
360
101576B
  0
DICTIONARY
  5
101576C
330
37D3
100
AcDbDictionary
280
     1
281
     1
  3
ACAD_XREC_ROUNDTRIP
360
101576D
  0
DICTIONARY
  5
101576E
330
3A45
100
AcDbDictionary
280
     1
281
     1
  3
ACAD_XREC_ROUNDTRIP
360
101576F
  0
DICTIONARY
  5
1015770
330
37CF
100
AcDbDictionary
280
     1
281
     1
  3
ACAD_XREC_ROUNDTRIP
360
1015771
  0
DICTIONARY
  5
1015772
330
485F
100
AcDbDictionary
280
     1
281
     1
  3
ACAD_XREC_ROUNDTRIP
360
1015773
  0
DICTIONARY
  5
1015774
330
485E
100
AcDbDictionary
280
     1
281
     1
  3
ACAD_XREC_ROUNDTRIP
360
1015775
  0
DICTIONARY
  5
1015776
330
485B
100
AcDbDictionary
280
     1
281
     1
  3
ACAD_XREC_ROUNDTRIP
360
1015777
  0
DICTIONARY
  5
1015778
330
485C
100
AcDbDictionary
280
     1
281
     1
  3
ACAD_XREC_ROUNDTRIP
360
1015779
  0
DICTIONARY
  5
101577A
330
37D2
100
AcDbDictionary
280
     1
281
     1
  3
ACAD_XREC_ROUNDTRIP
360
101577B
  0
DICTIONARY
  5
101577C
330
4859
100
AcDbDictionary
280
     1
281
     1
  3
ACAD_XREC_ROUNDTRIP
360
101577D
  0
DICTIONARY
  5
101577E
330
485D
100
AcDbDictionary
280
     1
281
     1
  3
ACAD_XREC_ROUNDTRIP
360
101577F
  0
XRECORD
  5
1015743
102
{ACAD_REACTORS
330
1015742
102
}
330
1015742
100
AcDbXrecord
280
     1
102
DISPLAYNAME
  1
Imperial24
102
FLAGS
 90
        0
  0
XRECORD
  5
1015745
102
{ACAD_REACTORS
330
1015744
102
}
330
1015744
100
AcDbXrecord
280
     1
102
DISPLAYNAME
  1
Metric50
102
FLAGS
 90
        0
  0
XRECORD
  5
5067
102
{ACAD_REACTORS
330
5066
102
}
330
5066
100
AcDbXrecord
280
     1
 70
     1
 90
2070111275
 71
     1
  1
AC7DF2EC-9878-4716-A98D-622878E9183E
311
504B0304140006080800C05D4C4BF8F750521F010000A80100004F00000034463631393531302D364545452D343437392D413331352D3038423232324633344539332F4173736574446174612F446566696E6974696F6E4974657261746F7250726F706572746965732E62696E8550B14EC330103D18400C0CA00E8C0CAC26
311
8EE3C431124269E23021AA16B12237386D2437A9E244AC1DF96B388BB0B060E9F94ECFCFEF9EEE1300BEA6832D1C210E789F637D34ADE99B6A556DCD4EC389676CB7D6F606BB9231AE282D88C8134EB89282C858C44428CAE685E089C88A63D49D220A53EBD10EDEF2A97195B156B7A61BDD0512D38CEB9D1E7096B6B7FED3
311
19802F0704FC3E38EFB4F949E4437E20F4FBFEEE413B6786FB80974928E39092442945381792645118139ACE1963658411A360695C37F6957141968BA2642A27321529E1224C4826D382248C21A16498462A18B6A35FCDCCC758B7BAB1010DA6086FFB7653C30C96F002AFB0820574E06000061442C4027A64F6F08C889029
311
71A7355CFEAB8FD0E1CA4BFF587F03504B0304140006080800C05D4C4B4FA546621D010000300200004500000034463631393531302D364545452D343437392D413331352D3038423232324633344539332F4173736574446174612F496E7374616E636550726F706572746965732E62696E6D51BB4EC340101C1E120DA008
311
F10929427128679F5F95E3272511415448C84A1C9282809248B42EE9F81E5ABE810FE013D250C3D83136C8DED3DCECCECEEE49F60B80EF32986287C8781F912FD245BA9C8F47E359FA907429788115C65A1408C7B66CA12C690ACFB143616A1A85C891B61E1DD483F9882E55186986230CA574A14C4D0A3FF643212DBD1F98
311
41E07891435BF12ECE6E5FDFBF7A1F2E79975A46FCD605B3666CDCAD1BE80CD029A4E2EA0EEABC35E3E036AAA4D546B1326CF658654439FA59F221A566E4DFB1EE544B1AC6C9DBA0A1FD139AA3F9EADE1FCFC6DD6795FFAD6362F49CACC733E12F93C5249DE49D15EEF0887BF239D69863CA738A2B5CE306230CD95B51D7D0
311
872486585279C225614021E6E6294E5AFC3F504B0304140006080800C05D4C4B88E57597CD3F0000904100006B00000034463631393531302D364545452D343437392D413331352D3038423232324633344539332F5265736F75726365732F41433744463245432D393837382D343731362D413938442D3632323837384539
311
313833452F7468756D626E61696C2F302F67656E657269635F706E67355B773CD4FF1FBF73E71C0E67EF7576C9DEF3EC995D46C6A1EC5046649CBDF79E192942562825CE965D8A868C2842C8DE9FDFD1F7E7F138F7078FCF6B3F5FCFD7EBFDFEC41B196891913091804020321D6D7513FC77D8C5070EC3FFEE51B21F068154
311
CC75D455CC028A3EA68992803810109FDDE5D5CEC5521B28A1B422BF80741695D5B529DA1C2D058AD2388BDA9F476F7C2CADC939304173DBF48A452BF8A700C0C70C3D121C1AA15A5270C22E2B9E28763651F7DA0D12CE11077B2ECD0D560B5E3DE2368B1E65C5E1C87384A4CC5F2D9FB8BE39E9B77C753783A37998F5CEF1
311
B4FEE553463245C9712270880DF339E0B882A6BA713D865F6F384C842D440934EF264F4A304F8DE4EEFA1E2BF5E2D91F5ADD9613D6E31DDB33ED31DB1D7916CAF091286EA3D31B9CFECB78BB0060245B943C4C040119FF780A74DD308BA9D028678674EB5504ECF284EE814DAED07440BAF649BE4B55DA2890F4D73E2D489A
311
59EE54FDB0A85B59F2F52C4858A02705C4815A792B0C4A996A2023ECB195073E115E3E3647F64243A8338F2000BCB58DA5692C7E7C3D413F963FEDF3CF00FBB0F831A9D51360FECA43819F527B89FA260EB63C5DA676830AA3626A3693B23F1A17A0DFFCE3EE164E31B5365EDF0C89EF64D8E38AB0BA9A1117D7C3A0EC44F4
311
4F4023095E80BA610DE336D0F99593A88BFC5306E72DF98F7FD132ED95878DF2964EA7E43071359FD83B2BDF9C6B5BDF768F0F3C0FC351199526F53D9460A34511F75D1B63E488178569472C91A94497807A3FD4A390C6558F26D416365C3656DE6E769DA9D8FC73774E1709812842DD8EF96AED1960F79D21B395CDDFE6F9
311
2CB4EB962A4668C76990E2EF29798C8941D67DA50F4A5F947872460F1F6FDB794E8A29FD7AC0C0D6E0714339CE258FB17AE8535221E3464A10F29A0BE5EEECEFC5675926A89F49EB14E5711894F6586DB5754EB4D5DA9C6437EBA57DB97A24F8B8A8DB295FFD73266CF57E82694DF5166DDF93573AFE9C9C5EB05F8FEF8E89
311
E0A8917B0B3724DB7BEBB53252581EFC3E38166BA131A3A5B42FE2AD00A769BBFA4458D2DE7822F8C4F63D0B8E21B285AE13325F3410A435C648C9D91FDEB109E73CEDA7BC796961AF79175E1A3CE4C5E8B0D009B0C9E29EFD98BC8E97554E3D8D838424E270F7685226E5AC268E021EDE3522D583E8F20C0BDE2959EF5BBF
311
EEDAB32FE9A3ED0E39F211A86AA9DEBFC68182EDED132AB8BB794442D2D7EA9F4D8BFF52BC4D55BB165124EE90A42D101E67BBBB292FFB4F66DE5BF2300E44546757DA7CEF8932BFC9F92A0707953491A55C5A5ACEDABD9FA1AEA01BAC3DC5A24E22E7C47213493996EFBC369D086ED9397C9BA6C7F9855C7BD5E15BFC8C53
311
DB3D2A4C5901A57ACD2FBDF4D1676E95338B2C2BCE65FDA4C64F5FEFDC7D9CA5AA1FCF11E193F2FDABF0F4916BF13FB916A224380E6462A9815F2300DC49CC4DF8D055CEF76462F4B7A7ACA7365C2707891370BC1D0AA6203C44CCAB47084FEC057F27FFCD57F89B8B9852459798A675C66BD7CE572CAF71FF7E6D7ECF7BF6
311
2CAB7B3F1107DCD04DC55A3F9961700286141C94A4F771FEB2BCDA2DDEE0CB0BAE402FF1DB0100F8E475DFFFC074DDB4498AB7D186A7654DDB1CB680D703D47CEB4E72F8CB13D86A4AA68116E26387B93FD6738779B34FEDB8E517EDF2BAF28D9BE93A1D3A164320E07D42E514725C29515FF361754213EDE06B079A2E99EB
311
1CA82A02019EADEEB87B9AF005BD04BBCECB14AACD6B24EFBE482194A97DD32400685FF1FEF1544D1B14EFB1E7F08E6D2CD2AF52DE757F35F5E62332EE88EA26417AD5C3E0E319D68F25414E6D672BD4522B278C57D18F0113921C71D96527E091F00CEB15AE23D24667369BD3CEFA10C7549D930890BA4366F4EBC55F01F7
311
46109F98ABCDD5A3EE06619C6AD78AB33E48E4C9BD21BF7478B385EC05C4F8987E2C1BFA0A60EBEDAA0AE0B015C2720ECE180FB6F2DEFBEB822D96338C9B63822183BBF52FB664A7AE57003AABCE512BF77E7E31BDA2E739AC4C131657DDFE5225E900FB56CC01CDE808FA4A9C9DA16AC679656BB64796283D89812B8F9113
311
6AE18EE5EBBAF47A73BE3C153EB5D4CD491B4BFB4FE690A4CF9ABA08C0D8AA64220C438C96EA6CA80B58FE5761E697B3A292EB9FBDA502FA863E49FE694ADDFFF9D62C520BDD1A22014147A0903A05B9B729F54272EF83931FEEC057BFF8C8055C279EAC5C0011804828734024F6CFA319C9CC6867C727184465CD9BB7ED38
311
6AFFD96B294A85E3802FAE47244602D8273615952B98C4F23F7EAE4463D9D638EEE374A20959E0FE519C4CFB0FBFE5DD80C2AA3F9DB961D1BDE57E67C9BB47B77FDD74EE3094F5DBBE3EBC1FBDB7393F5116263009E2EFE1AF9A221B2AE234C902BF70E9F280ED23E73908361565964333A3F01D0B006AF32FB21AA1316744
311
B489D5A198E85299241735BE559675130955C902A8ED761FC0DBE337A9F91919AF5CE32AF902ADF9AB2615E00E8A94586BA1A90839B61832FF1BFB76D2EFADE6DB1BA04CCAD3DA649E7E2A0219F592E22F2AD54847EEA8E42271011E9074F8F3DD9FBA6CDF88FFC9FC7E811AD1CA8F4557CE4AFC7BBEDCF0114A48689F20A5
311
84520C74DA8127124B767E2FB91A6B186246727BE63C9445BAE02088D58B8EFDC0F1072407CD9B89A13F6303B4A928F593AD489B58E6869325790ADC406036C591729FE14021F94B7796BB11848D463536A092A26F077F94639F7CEEE2A724C66EC885F4A24F8B8A0AC321F8FD149BA529460FAA34E4663C02D41FDF80BCA2
311
22D42F0ABFF8490F4FA74C673807C2051D8E467B47B616072860069A9A303ABA9B319D58404461401B0A0F9BE5E1E151C14BC33B32ABE03DDE91708DFAEB15E7C0D593C86BB7D7EC17BE56E57975F077BFD5525F3A1A361D584A75E08CF29FC7B44B2B3085014F3A5A14517377C3F6B8F37E59514C3B12F8AACDEDDA4DFC49
311
BE5710101534CD6FB6DE15B50F11A09472AABA727F0C49D9CB906B158030065F48EB3625E010CEC1D511D0053474B11E6A4F01C0D6EF1BED3A944FDEC70E0DDCDC756C86545910E0DAE3BE3AA9A404574C2995CD5CAF9549226BC94B4F4F0F5F9086F418F6B32346464610D8BC7391D3C3A3CCF04CFC1FB2A3A3170E369511
311
868F14EEA4E5E438CC73DB1F3248AA94B6B2FF33B222FF3D1E7BF146CAD229770158063BCE4F5391964DF62F7E52A7BE0EEA829C9E13C4C147D6F93FE59E111DAB5E4594D6F3CD1AD375EE039930EFE5AF2BB2D41C83C7DABD8C659BAFBE8FAB392CA634F3D15C1D945DB4588D2B0824A4EC928AAC565557CA2F0DAA588CA5
311
BE30B3A8004F7BF005E96CBF891D7F18112A3619FDF530DC8AA64954258E1811789B5189B49B4EB53F5F89F7D37523894F3EB57B373763C91E502F52CC99EB7BDDF933FC324C4FFC2561DFFA7339FAFDD0A4BFBE6D3A8FF9ED1FC49898139864602458968913181918F719CCF5A68B2EE9C1FF050E34E63107003B8120FA98
311
2C21B30A874E4F5E4B38D5A8290C4B8D9BE48A0BE31EA995BDC37AC6DE90BA17D259DEF53605D55922FEB1855D915B659FBEB350EE0DFB2F9F766E1C84CC8964B75D08667445EAB966015F63A18A9E0A325C1B3DC628C0D3CB60F767FA93CC65F25458BD23C3B312716E5F40E5858AC06EBA9AB14F95DB99147B8320692015
311
41D09A0D856E12C629CF32683760EE855537D1901988D5EBC156676C7DD51D7207CF3267AF1D76C2AD867315E44618015313A98B19941C696FED3461CAA9B5415F918556D7802EDACEFD6B2E45853A9735DFC9DBF7E440F9319F8B6805A973BCCDC76C069A9144E51F187EDCC12FC31B5DEAAF0A76137199B106EC84ADA6B6
311
EE697D4E6A96E007417F4E880E8B1E89B4BCE9D81EF611E2ED8F0C1A6C25F620FAFAAB656A7C42D464880E8AFAB0E0FC8EA38CA9A8AEEAEE3E4648BA4680270A89743CDD3E6C6CBF34B7B640EFA285ABC7EA0A1E28F3CC963D114A80123EE66D0AF7D5380EB41909B605AB4765B709B808590458157E69BA1378FEC4B48CAF
311
6A730E3BE3C5EF2DD1A5EAF94B1DDE50CEB55DDFD7EE9A16747FA4B223359FB1FCC69E1194892BABB93A1D5C4E807AC0EA2E30180811E77A2291F6E7F7FAA5E0F60215BC6024E48DE436C511F0628B8CA189982D4D83CCA17D305A7E923C37941CFDFDCD93ACAF735EF5F0E61BBD3E6C41A59B242790D3A3BAC7064DCD89AA
311
2E37214EC839820949D5CAA31E240D2948E48F690298974A96BA9A8432BC90F5071D6537C9666EA4564796B7AFFFA548077BEEA75F63083435074BA182F3699557397F71548383FDA8CA34D99B981E72835ECDA5DDDC151315173D05A21F651AAF8524E88209E2E7A737ED1045800CE3390050BCFB8BE588DF111617874C62
311
575039CA588EEFDEFEFE319B739DE2EDC147092A262611E159650E787917885EF08F1F51B8F2D8A71D60B58B190FEF9541A1BE94BC19FEA50784DA1419FE4B0FB51B8D36B5FF8E1286FD8AF42B91E59A5F1CC4D60174E764045FD8C57B18209B217F89A62252BD20BE0E63E12B8E8F029FE19E0E8D0870F58721A557082250
311
D5424F7909369376E41666C0EE77CD87CB283F661D5FB6D0DA023CB67320A20DC7BE661E9E1BFE5463085C557DA1FF9BE835733766C3D139F2CF9E2208873AD0EB4814DE9E6BF2CAF81614D4D43906ED1C05A3265CABBFE192770FC2F64F940CB6B17B5F166F133C9AEEAD2641807C3E69515171DD74C4A85311513D6EC953
311
0B3B601B6BA3EBFF3B5C3D2F7D69765141E345F75433953D013ADDF8F6AA7DC3F4A7563FE5C7D367937E2900D7EAD0F9FC9A4A1A9B5BDF1FEF08532660C01C5D6DE22199AA774383E306DAB87E301ABB7D213887F9869D4942D0D71E94B27EDF216A318BD488D45DF84529EF575AF3C3938C0AAA0215B01994153E2054A0B8
311
94DA5C784980633AAD48576957CF4AEAEAFADC7C587368551C73DBE1E57C58AC713303A8BFC258BD04B51724459FF9E24C03A81E0E0679CEB9B348C0DC998FEB9C6D6EFA77D247CC8F92D3848599ED89A23218D0636465AD1CEEB7DC140D7426F83491C4E8E8281C2FB35240918FFECE880CA2A42D70E8B20B34DF5221C7DB
311
0CF90ECCB9C745B37A47E9B716FF7A97B7A252C1F3814DC7B1E1A7F72B8751D524EF7CAE45B0C73B3BE7D08ED39781B380DDFC9AA4A4749C9493DB5BAD07A6EA6C092FBD0E85DB004DF06B8C9D3089C5320187E4CE1846158C7EA7DDAE8AD9AFFF21AA3A1026BB06A259845E8232DEE62811A4DA9CEAB3A4887320B76E2AE5
311
615EAB7BDF738CBDD01F1E64064BC13D9EC53576751CA8CACD58B3CEB0E6CA585BD089B2A59B9FC101403387AADBDBE70586B93D64BF3AD4453EF9C3B6A93817E8346991798601344F79A83C51F3D50F7BF2683A3605F51A72449489E0EE6169C749C60B1035651103AEE24D24E51A759C840DD3FC6504DA6FE107510E447B
311
43461C79D22970B75DE5E1BD3007D1AFC619A4A4A69B5626AF5E9B8374E20677F77E2F8E73DF868E8BEC7EBA7B6A75EEF7205E1AB9486CB642741D6E03FF13FCCEDB1C4AC129886268B01CDF4B124AF797CF784F3C6DEC97A17D4B558070A0F1C04DA4FF9BDBF34159AEFE958479824B3F58EBD1E19088A2AFDE501B6F2052
311
368A3FD0E650A179EFAB1561E1D27527077136E652676C3670F42DCB3352F48F6BC86D2C3B0051727E41A0A4DC6CE2BE9D47F5CAA2935A3C0539AF080665997194ABECD723B08129CC5B6B21D2E7D54CD4D12610E7E9FB8306771A89576C7A982002775ED44F3F744CF21EEBB27A631671D921938AAEE3EB0D19CD1E083727
311
F607823E817BF599DCED5394E37EEBC2E88782E638920CA641EF74D4CDFCDEF06F4278ECB18E31E7E9876F2D783C8BF429C75395F57E98C2B495A3DA077EB3AC3C158608B6B57FE3EA48484D9A480096FCEE0DE880950E7E5A5714131C5C41AAA29FD19AE81AC145FA1B9E85C7169A5AB837B213493DF7E9AA4B5FBF9CDEB3
311
6EBD21EF1181B7CF7366AB2A951D01E37AF4EB835D1BE8C117CFBE7625D2EBCDB0B20C5A4B45CED0BCDE3EE8DA9DA78C2E21DEAAFFD1197E463C33CC6A80FB785669B856EFF7A8CCCA2841B5A5369173320B1170C368B2748D81062EA0296E5E2D95D7667A4A46D98A6FF475C76AAB0A8C8D45E226FAFC9FE0133EA9F60111
311
F99CA81ACE03A1D14C89E8B0D69079C91464FA1D99E651D0EAF606F345C42A8A1AA9BA391031582B96D5B4176A77AADB01F12FD298A75DEEBB2C82F0B8650E880722F8DDD90C56A7A058E5FDEF1AC93545BA27367C76F5D8F9690CB6F8DAE141EDD7971F0FB548A2AE435F224D6E5954CA155512F7332029D5A1230854B79F
311
258EC5FFDB09F5F6343A8EB193229B7F7E79B3E48F8E183860B38C8269D1B53738FF1E0BACF6AADA6D4869E9DE708E79B5DADCC09B1BC76F649731CFAF59A83FD8BAE4C749D66FA87A3810D4D62FFE826FA400C0F325D2BC0F3CA35F5847B82A2ACC7961745C823E4D863D54460AF792CE6F79B5C7A33B25C3AEA6CDE15A91
311
9B6367D781E9D44F61BF828672594A3E1D9EDD6DF179A81F27EAC05B936575D73E05C209DDD2115CFB705DF9BBF3C911589B3640735E9E618FC9C36A7326C82B2205E244C55D56FDB9D5DC93CE958D4BF8174D2B3DA54CB3C09F2C2A6DFF73D23B2197355761AD421EC581284A7EF8DE2CE3497C0C804D49B41DFD6A736084
311
4E5BEFFB495CFCDB97A4595911CDBA623274CE852B5E278AF0BEB1770E9D37CD977B2766A7DED0E94B840E1E95E8C77DE5CB6354AF7871427C28ADBEEF7BA0A28E19DE9ACD75F379FE373EAE6DDDAE3834692F9C2B03B4FCA8FCA9ABE8EEEBEBB725B88A7C90941E850682CA04061A7DF0CE82ED49BFAFFD42C309818FAE14
311
755CAAE78B0F73243ECCCAD7DF58FCB9CDFAE7A4D3E6671A613639130D056C8383C8F4FCF4808C331E544DD26E4755D09EA05253B3049A1E32587CC25D72E073E2CD96D04A71BBCB0038FEC3F53D254199C3CDC67CD66640269431860225392B2CB3ECD0B4498AAE78BA1994246AE1EE78F2EDFB79F6C6CB6B5E279C4D373F
311
BC21CB2698C9ACBBEB6A4BB6B39E16AB0E421CCBFC7654D81ED86022F9BB522146F9F4772E2D0E4FA70120C95A85A417BF5078B232F4754363EB1750B2AC2148EB46B1EA72AD9B4D23ADCBC589D70106C3EC2ABEEED84DFE28E718C6C83502C28E9FDD3B09DA0A6F6F7B72B706A31C9E2A331EE70DA56A083D2177BFD63C55
311
B11D8D949FAFCF90B23A1E24B9B5018B9A17E99F2890EC302F330FE7936E2C23F0D237EC8916F5166AB84B62A21BB0B950146962D754F92CC2C8877BED8FC7B7B25726DD19545392570B3A2C66B58F027BEF412E552D12A588C4A3CC5C3193FCB3485EFFF700D0B9EEC077754A33DC1FB9E25AF814628F91DDFECB667D3F76
311
90803F38D13F8AE39353523BB08FC6760144AFA2CE28236F65EDBB3D5F59A57D612B99E3D7E5F8A851666BF9B5A6658EFC96EEB37A378ABB0EB3FDDF1303AF32C41BD1C8560745D7BD81066B0D6313359CF488563D3BA3F8E2185D1FAA3EBA1397C9D0E3DD232180A4DCADB6AF25DB3AC3CC26589C8239E66E81547BC7E2F3
311
28F9884764CA37EB5DBE390DFC03A5246B456A7C3684C4377D0EEF9A350680FA9A077E8B2957B489E09AB1AD41316944C2254B5984830F691C93CAA767EECF976FA5647538830B5E63236A6F0365C1E0F3E327F24FE35EDDBD7360B0F7374837409F7A6311BECC12B7026D4FA1AE204FA3F5FE904B1F420C7A9044AE58E403
311
E7C4848E7DA25DC9EDAC79DD756FAA26B9EA83ACE8A214A2612A22AFA19DAE7DBAC5F8CDE1292A485F98DAC731A29FE01A3966E96BCB9FB5A4C8830E1B9AF0C54B87FBE221A097036E5D28D1F869F810C06A9BB0AC0612F69AEBAF893C6E7AD59460208BAB3A6B09CA4F6BDDAB8CF0D1F84B72487498395A70DCD754796E27
311
1099A567A55CF242BBED64696378BB6CF25EF0FCDB589F3A82F1116D010A9AB9FA4358809EE0C973A2B4229BAA876A70B03AB49CBA7FBE71DB1832FFD32F9BF2C8E98075CACAFB36921235D0F552B6A67E94E094097A5D7DF681B40623DA535ADA7A9AD8E9A62407D7C9A5AE51D62A17A83A23728DE86BB56115804D3F2675
311
F2C6B87541A0FC497BF0CA86420F558C9859EBE9FAD62747E323E3AADC03FDCDDFE7407B09DA90B44E3185723C5381EAEF589765E2F7A099BA46695BAD60CEF3491B8A171F5F56444F7CE9455312C3498C74173AEA0214EC029833B34B650CBB5A5508D5091665309642791708ECF27CF11DB3D797D6CFE474453BD4BFADB7
311
68094B2147814D81C7CBAF8228DCAF5564B5891F5EF6A860EB2E323CB82AB868D8EA048880D63B0DE5341F1B3D53297B928A11E15F25E5148990F710747C3509ED14909C552EBE3973246FCE55D00564D8310BC3EBC5085D08D806799B77D6C57FDF5E55837F9E934F09C03C729271B64F12D0A9F9E938107CAF7BF1EC8CF1
311
BB9B42363D33070F4CACB425E605DDB0A34A12BB936DE286B9887A4E2E558F0886498BFF49C311D96C277CF6A9FC0D75AD0ECC5226D7E0E3572012E56D7FDE4410CEC7A6D0F997F225A2055B8B92E3956E875AE4993CB3D4C9063AF98FD45E1BAB165640A43439A2C9181A7C355B297C0A0CCFFAE19B6FA3C2BA238A885FBC
311
98B8F6DAF4B94B97304878DF4D8BFF6A4AEDF79E90ED4E68F00CD7299F4E0D83E35601AF0CBEF18C1E870E74758FA91F5131075004DB3CFCF09AE1DABC11957FD9808C92E8A678CE9DBE40DDA0E0D1D505AAFBCBA208232BFB6FB3704E8985E61ADE53DE74152F5C7DE74B1DEDCD37DC3E8FB30D7EBA8B9EFFC3606BF90B8D
311
438279CB7709FC7C00D327F41817EEA71CD9E49FE9C8C9A81C70915D9F0F15958EC5AA4C3BBFAF46986B90F188BDB24B89DE3C6F29EC3E6F66D84856EE96A35E657CA41B41EFD8DBFA16AD6E91439EA92B40B21C053249F51AE50EB0B24C770FFAF40DF12C8436366819C48E36547D4E7B72FE2BBF10828583057814A668BD
311
F183F6B2E58DFB151103E56303E63D00F39C27C4661605DB644D19175D02E3F0241E8FC3458D17AAAADB117CE9EEA690D0DB01E634878C04C2C9310B69FCAB831151E3AD293BEF6E46B0ABCECB50F5939B39C613D41E81FAE8D34CAE3C4566B761D37185FE864AC32FCB71AEF39DAA5BAB88609BB980CD2F07A8F941653B52
311
9567726E2B2A58D079DD57E1E5E31426CF184A04D7B03B985F276D47406AF276FE32E3328BA866EB1FD39BEF57863A317634AA5FE467409B3873F5069EF0D71AF00AD189D17BA1974ECDB2D623E9E14086386A6AAB5807825C37B015BFE892AFD154920EC437EB945D958E18622E1E0FE2FA06557CE4BB9BBD05A2D40E774D
311
A2B65473791E314B7D6C886820B2FCFE4AA272B3B8B15E7344A145E8AF919B5454D89D36D413E87211186BF6F645E5EC94DCCE8E1C799022E4EC9BC86D7A0F2AFB1FC4B2CE48F84B3F49ECE65BAD24CADCC07EFF39AB06BE9E6B27A059938EA7208838455383DDBCFCD967DDE4650EF92A14FF933C975DB20BD7FEEBC44875
311
76485963D757D16340D9599FEB362F775F38CA4185A86F74B629C81B133644A3B18FD056E997E0734F9BE26D11C0AAFC669E2AC9FC41D281F8B2E1C35AE27BCE05F3DA295488096688719D974DF1B5D182DB7792288697F8763CFB43562C1CDEE11C4AABD5C22B6E33F6F389CFC3477C5919DC0D533F8A7A1846B7ADB60ABD
311
C26C43D0CFC8910B7C15EE22675BD02702ED39DB77A87A192CA7A543E6205B979B9F5A6B512A3CA799E198B2D5797C0AF8D1D872CA455D4D431A7879D4DD76110B5FF7F4176B54477A9EB5E4A5D11214FDA585F0382751D8E2582BA5D2075053298FEB8F1537304E32CB22C2E2B693DC0A760B1DFCA751BDC445AFDCBB1282
311
0ED85F6D5298933C7EF1211E9E057684056CDA3FEF3BB6052355E162DF27C59E965A8DDB7F9437EB72CDDA3A090DE65A5B2F50326247B7EC67B73ACC7047FC9B353D6EE990F772207C6EC52B39DC2F3C0754821DAB559F7C1809C7D0DD5B0499D0442E0A6E391B3D5DB46D11E731E6794EC77523FBDAA242ED67F9FA1FB684
311
255671F63C9BCFE6E7E896D51001A6113EF2298BA494E0B0980D1FA5B9D60796554C02256B1E0345FB7C6186B6A19D2DCA270416262845FA4F42DB5D9B0A0B6F07FCA2E56C242522E001E0CEB734AF310FC8BFB57E38E03AACE93B3326A2197891E68452B26A6307FDABFEE0223D3C03C3C73D2D5BC054C8311F12004CAE48
311
8E5C29287F8156A2CAA4AD0D7BE6B97264E4139F437CE73ADF52E5134C52B819777C18B323A5924E4F67AFD13B1CDC3A61793A79FAF5C0CEB718E441071E797C6DCCB9EFCF7E4A1E9F3DF3C2F9C9E8294E9586868788C972857FB0556D7A26941A7EEB9B580AD78EC40B85DC906B4120A563CA3B87797ED612D3B035962BB7
311
5F6515A393F4CB057F564CDF54F2E5A024514E6A1F901DB80C7E70B1FC05E356A7E72FABF4775B3E3FB8F70A2A8E7B6A94542BB304157978CCC999E707A29CC795E67A59CC546A5D47B368954CA7B6E75EC9E1F6FC73CE3B4F71F8CB1A6B15923D61EAAEB14626AAA9D04A26EB9C66CD1BE86CA31A5D8703DE04CD1EBCE4F5
311
CCB62F93909AD11E55799A781A956ED27D3E738F4538CB04ADABC7DAEF20BC35BA6A90BCC1DC61BA05F20D8832FFB9BC9B15E2DB838A0AFBB7E0C82A562127E0446894F427794C3037186F622BF24DE1B00AA10A23BFA47B2A180D6DA5AD6F7326FEB8C100C2D7142EB2A0B2A9D1008A09BA343D70E054AB69E2A7EDB783CB
311
D92537FAF4A44D1296AC2792729104B3276C276C951D0CF3CF3F1E6B017720A7B8505A5FF9589365979678C36F1BAF759EAF57C60F1FF5FE9DCF5F8E764FF25A2D06CF25117A8FED51884C13B2B750DB0E4F5E3D64124FCF11F0AD8F1CC3B3DA4B38ED22BF1CB2585EE6BFEBBA63FBFD44F9537B9B37BDD6B358720F98A812
311
5AED4349CCFEB0E135F19E208A04CA7E2B10711185D72E381F448036EF57C9F874E54A971CA37A639E986AC0226DC5AA00D5B14FEA9192234B3DE617814FC221C92F33F1D392F297731B567FD98FD91D989379AF567A65B8ADF177591DB90FBEA99BF4ED11B16E50A0AB1DBF1156D034BBE04D69D08F939D8E92BF525A1DDA
311
FF80ECBC95D8F45D3FDD289FD23F7D8B452F8EBB34EC082DEEE68E18EDDF072060FAD2AB1504DD4879BF67099FC58F6E9DEFBF645D16334A3E9A127C6F1AF6132CF287E433B43A0EE93812B4AA0B194E03EE3FF91EF9C6ED0074A2F6EB18A96A7C9890B1FCDA1F2095E944DB911ED54C60DF16FB74C8CE9BDC7C54C4F14078
311
CF73C2FFF1F1BBCCD7CF64F71407EA1683DBC410D226627F66E509060D5C0AFD611DE681D509DB8DD12FB1265B03C6F5C55FF4C30BD94187FF692B4F152982502F193098A789526A038AB529A52BC0DC4FB6285CBAC10A8B8DB75DCD9BDABBB221E27D1F8DA9F5EE5926A1C8AA9BA9BC09239C6A7F12914EA3B59EFF7AAEC3
311
FFCCE56F1C5C2980AD072793527565E774F4631DB178CEEC691B1F367BEA0CF2907E1D6B854D527065979DDEF002D8B2ACEA7CE21AE297737EDE1D45B31233B73FEA35BCFDD0B09721FDBAF6432681F2FD10C3E9EFB246FD6E854B344ACC9D8A0EEF876A7314B49B6A499FC650B099D650DBFEC7638ADFD245E2B7839DA5AC
311
5F7D5623FC0ECEEC8653FC9B2BDD1AD4D00A566FBA7186DD3C9CD26512551637498CADB950FEC71ADB9A5524285DE328B8EC7EC75D2345AEC6A27C42AF6D9B92155315C80DBFCABBB7DA0FAE425C4FB896B15C9BFAC4FE67DF5A23D30C93DA4D8F36FB15D100050DA6062E22AEC5F4DAC4F6FEEF97AE05DE63C6D38F9E068A
311
20BC5E3B6BCD75320C5090924E7F93640A7735B1A43451C2D91EE62C6238B797349E59890AF3A520DF4A87095F3ABEC2E61F0593416CE46CDCBE0E00E2523FCCD04408588B5B6C9DB6459C786CE378770B54F51DA3A5E1DF2A3349BEAAC234A6CF8993B598B3B25B4B113E353A4D750FA7534749430F3EBF2512E7EA3FD43C
311
6AB9A1F765A58463B306721A15D224FAFE8C6F5E3432D57EE697DA0DD5A9D4866A8BCCAAA9DFF1F06047851408FEC060471D0E3EB86BFAF46E4B5E60311DC3E3CEA147C75CF971BE74689507154FF2D2E92F15CDB2B9182B11459FD8ACAC5A85F174BC94A7F4EE4C4F5CAFA7C02E37BF0BC77B7DCD0C047BC316F562A01A44
311
1AFA7931CC84A28CB9F4AA367EB515778F29BFE61195FA671F4352E5E46E3A64773F1F76EE5EB36D7BCE9BCEAD837A4D77F8DB8C92AEEF6711920D7C7D0F76B0FD0EB7AB83724CD35BCA7D36DDDF5FBB7FF6F04A91F3E2BB3B8F1A43CD659639507FF6331C5F697BCC782AE57D757A27D97F1AB9E0AEDB43F92F1B2AACDF5F
311
EC8ADBAF9F814E2027003BA2F9E144B1938A7A04050AE5D953B82C45619165C813A10E76DD6906B3C16438064D14CDA713AEC420034613E1AC7241904A49FBF87409AFB1FCB9B72FE7933A87D8FBEDACECE4EDCF6A4FE9FB94D5DEB74FAB7CFEAE17EE965DF980DCCA2D04134994F9A2E94D2265DA4FE6AA7B7AC15FACAC2B
311
5ABBCD7DFF542C5314FDAB2E1B9D8B65220B8E2B638BE008E8DCA22678C820C5053664D15E89F2D735B51A84955E81A443545E9FF787BE0FA700A76D136C27DA179A7C6E8939E01BE756E19CB292798063D8B97F44E8A27BCF3A614FEB8BE974A718E86F7EC99B53CA35FA24F61F2B07266684623A3D4CF073E511F3A10A8F
311
DAFAF0078C577F4DF9D339FE7862E5FA47CF4344209E5BF76D783B1B48E152AD281B15FCB934DCDA49CEC5706B1EE8B460F435324A5CAD154725E21AB8044B75A557A79F6C807B9340AA3D92503E866F4274412926C8C504E4D5EF8C0E68DD0B028781A6B4054F11CF18941F101C57CCC796773ABC8DED9CD91FE5788806C0
311
5E548895354AEAC96546D55B0E94A59F148D061F42AA398D822CDECA4CDE79E13469BDCC44FDC990F366BA5978C15F97ED80CBFD73B0CD9B8B83A4F6845BDFBFAF034019473FB9A63BD55D3A4A7284757071574029A4D016DCCBE95DD679EF3C4880BF169422F8C89B68A988D2B13793CAED4F74DE7486C72DC94DF46B8E93
311
D8E02EFCB1FF9B3BA10C8AE7F653DF94F4AF466CDDCEF5776687F7C4C14B63E4EED1719DC2EC482D7DBCC7AE518CDE3D5FF86D39000EC3673C0044E1D308BF05F74D1B5F033A7D1BE7F74BC55BBE3E4A20F920946CA0271EB17BD2B80E5660ACB8A29A79F5E4BBA49D4D945B6EEF4A7EFEAA65E5555BBB57A7E15D2F83C69F
311
30BBB978D2B39F1F26FC097424D39BB33CA3D87ABF64E307938B685BAD44F71556A30B7E712CA4FE600613C3E554B69ADE949A7CFE214DF1FFF05CB82151EC6FC31950239F94CF7AD39DC473F6EA356E5EC2C4EFA04383CEFE985A127484366FBEE3C0EC4FEA363E4F6632AE781392FD45D67B63FB8DF70E82734F431FD344
311
3172A0E30A83D60982D55FA6A2CF86DBA8382502ACC6CDEF3B907982EED1160E14863FA242F9757347E1544275CCDCF71ECD5F8621CBEA326B8BA884AD7F825781923E66971F04010D574C541D8427A438A37EEF8AF88240EED7362C953F5A81DE2D56109CDE2524EA0F5D2F87308C0C47BD97AD605878AB8589E17CA83930
311
CB5E0DCCD75853D68B1AB136594926DE426C367428E9334AFAFF90ECE221BB5DC9E5BB53D2CDEF954EAA9CD814F0E5725F1965DD458E5F8487683AD86B9D0076BE3EE91EB1CECC5331A67A3F79D8B27587C12EC2A6A70474749F27B4C0BBAFB94B34189E88DC18964BE4121B9137FD516C7755356E50D6714E31ACD222621E
311
BBCD1CFF81D87479056A9DA0E0B8EA19D24CF937DA89F78E8650CCBDC110AAB6C4E46DCBFD0446BA9E2060E81F314AC2031E88135E5476AC0160EF5C0DD2EEF1B8B5CB2D198BE9A554A9093B5F7D7E4B5407DDFCA1D9C152FD97F55BFFFDFE802954DFEC8995B983E28AC92F1971E28F531DC407A1280EB125F64A72E617EF
311
B27DFBCEDCDA2D6F2BDADA36873EE46B9BE1782998C63DA7182BC383FB6FD15DA472B175D7E8B4FC88F38D6E07FEAA3FA3CBB8F6B449ECF14D2175E5C5CCA3A42ABF24CA6C9395AF74535F4DDB38CB84F56614B0FD32D7E19CA5CF988DB4449C40E23DF2B16772594554579094450F56F253CD25EA7F77366FB1CFE79696C4
311
28BB64D5A41E986189427E5E4D7E2DAE3D5BB4972B3DC44EAABDDDD63A2264ECFA5C786EB0EE1FDC5BE34FA0F08376869FD1E61EA06CAE15191135445EE8F0394161C3266A596AA035572BB0C8876180D8B9C77D307DF9DCDF7365ABDA6F3A2366436457A4DFC1F259666569A9E4A79C817BDD5610E5200FCE894A358EC728
311
58D50EF67545DA81C6FACE3D457BAF70367E1E6BDD9A952FB4F56247F58F523B97E640246051A72F79BE42FFA0B3187F63097F91C48B868586F714B0EBD5A00A8412C1236E1298F60C72BE6C96B82B404CADAA304AE9F303176B14BA53FBC2D5E86377E35542019E24D97B96A49B2C0E5006E7795954DEAF5DA58958839043
311
C6C70BD3B1B33B6DC5C31316D8A6923F142E26F6711A2258AF977DDF1F970ECC4F1F2B434B96D81BEB6E89BF3BBB3C7C8CC80505070723D6D7D7D3C8CA27CA164A26024FED94B12A86031867241DA53D929636DA600F050BC40CE48B8BA03D69224720DEE2ED2127390BDF5E6EA64527BBD4C4C63FA76BB801FEEC0E61218E
311
C98A8A86CD8313781617877E66692839B9468CF4DB8E50A73986E558E309C0D6F676F921BE02F1185454DC75B111572FF9D27D85EA14C05AD7271225B391C4275659CA4A43759D0BA44639BE4C30A84DB7F67A41399FB95CBF923B1B1672ABC807C1590557FB18D811983FA97F5E609516D62281D38B1281F68FC75528C35E
311
4CD7DF0F7DBB5E5DD69C414EBEA2F4A5B241B996BA77AE6C772E367408C633EA3E438B68563EA8BE7667F3A4C4FDEEA52ABD78A2820F443B7914A15F180018D231E64519C56A12F6CA7C8DAE18F06F6B769DBF92329EF6A5D18FBCE600F36BD8E8198DE5CDAA96181F3A756EBA5501CEE58F497EA4F418A2B82565B9BCC611
311
713C0B708CCA1F398B78C5F7D03B3437CC18F13061F55C7BEDADD5ACB1DB0E36D3CE47FF6EA1A563A57E9649EA5D14D1A50EAA457463381C073777EF1600607BAF6428A7DDC079D47A204EF1E1F1F0589FB054D45E02CE623B3823C317C601E589E22B1E88B448524B86A82828E32345EC18AE17214B42F8C41C6D428016D9
311
BA31DDCB47572561E5A402E5BA4FCE55F78AF7268524AA04130F3A20BA5D1E9F9948EA48FC8F5314FDB35E21898198060034ACE5E3E2BBCA34092518F275190AF65F45867FF0900AA4B81F25427414C372BF51DC29AA855C5428EE1EEDD6B849AD60F6E73475C2D2523F8A2772C840A478DED18A8C5C91B085F255DC4F54EA
311
7AA8947354FD17ECF8FB3B4A0DE7B483CAF3A1165EE05BBA413E5C1FEF3DE1D6B8F2F3F3251C17D9FCAB48A9AAF63AC773A0E413BBC46A9ADF84A566FC920E4D8C52C9769EE3301CADEEEDD92B312E02E2A7E35B7F1E7D203FE5A7D75578B06E99D0E46FFADB8FDA17ED8880390DA29094202D6F645F76F6F96409CDA05495
311
A96E84B04A00D1A6C6C81D7F3DE9376E828CCF144EE50E364ACCE7237EA0BFB5607ED1AC3CFE73794E5B61739D14DF1743441B1AC98F00ECEDE9E7301FA29755FBEFA68C91EF2B314CF510537EF1ABFC9A762496280B546F5EDAAF8A5B387D469FC9A878A92828C88608453ACEC6094DCA54111E7AD5B2663DFE2DD151B7F1
311
23B9F4FEF8EE36AB125FD7AD52A59B1B765B3E3F73E3F73DEA93875004D2AFFE3CDE9493B87A9904DD052028949041A91DC0E1BA47BA714343FD5B25E0A6A09503AFC17C790058A836A324FE31D7893512E28230332F153181C1E018E1124EBE1BA262AA428A518237D1EA7275E48C5C561BD19ED6912EDD8367DA0F31E40E
311
EAE9683DA9257525AEA7B632B97119E17145A90231768A4F3B9120FF32E8319B015E3CBE26F1A754177D8185345817C096B0CE443A955D13AC15E1FB5DEEA0239EC32A3C92241A237B0B02FFCB4F93CF2B02570C8D192E2F2A68CEEB42F12E6F8CEEFF46C251E22B4341C56FB08CCE550E7A9D6F4D6564B9EA52A83D5BF2C6
311
E03FA19D2775E15A8A7ACF30A13C259EE7F5EF2AC3BA354F1500E1A07FC63FB4686E2F12EC69719F9ECF5FE3F35598DF2CE944008CE78F0911BA5BE5D0A34E0098FF038669C26030BA9B300303039852A8F6F496341737CA7E0D2E3AAA36DE0A70AA7D9CA0D54D9AD84B18A44C9E625475E1C97B93BEBB38DCE7D227E67A2D
311
00F531436136355F243D1FC0D712C5765754FA22FCFFAE97919161F46D6E61ACB37D83777B385889770B50765B127768443A5C4D3A4E35A3151111F146B7CA116F918A049F1C272F2CD7976C69A0068773451659A97E0F4A08FE604C3FF6CE7385DB19F4D3ABC8A0D80DA8A42096AC377DB49382B36E270B6FA7570188B4B7
311
D1DDDDA82ACA487CCA5D38BD3BD039ADBAFA4ACFF27809239B722081E2EB9F145320553D183F28471C388BC8814E5045676767AB58A8E72D1CED2CA731379515D2E533E4CF0B39DFC625F97AC4836831A4DE330E87A8126FA17EBE583D614E71E22A8DBF2825599743E0640037303E8E1B1E8EA4E1ABFA4F62907B5E4E0E5D
311
CFDAB417C36C6848A2B8D15F1E505434C0707E16B1CFC2A1C36A42BBF55734F8F4301DDC2A5110CEE8C0747F69519265012A2174BF4E955ECD4FDE095A3ABC70536B7AD0B9D7892F81287D667C108703C9B66A221E9A0929D030008F77FF6F5D2108EF5706FC87A3069B976F7C9FC3239D13D283CDEA83597461079FEEE049
311
B0F392889898B7D87D31F8D60ED7B56B91823A8E4EDDB36C6172ECEE42BD42B12CD67994FA0F0DFAE9389356F4CD4425A4B8AA55CBF7ECD585C6A2C2316791E43D5C06841ADBB226A87FD61515FFBB0167B74E56BD7F3E90A57A97FEDCBDF483A0D6699A8C0849CAEB4947FAA90D8E332D9DEBD9F4738C37DA0CAF9CF3DAA6
311
8BCB67C420459C7A64498D6E848E5CADE92BB6901F607AA331104A67F7CD650EE169B1DAE94D2C31C2F993632259B6957E246EFE4C5481107B07118607700040E5812A2A2A38DA0076875258C753F60E0F2662C748EDD5F3F3686B8FC3BD6FE631ECCAA1E8B1C1E565AD117E54893E79F4672E32F9E46B2A183DFDCF3EECB4
311
D4D077DBEA0DA254D256045109670050129E9B9B1A9E4A11344D61497A992778095151510C4BB7EF2009B63AA4360635312E4CF668B7E0D3D85A8688E2BD83B569439892ADB63461930D428E0DE42E4AC57CE48DA5CC1449530D8BD3D6A0F08DF20C8E8F570F2CFFFCEA286E30969B4654D498A58D9DA782E19FE3F0021818
311
38925592C4A1EF0B332D88B61A92C644547BED490D3A42CFFAB70E36D961F694F6307F72FF15A1C79D5B1B5CEFD353D9E2B52566DEC8F8F09CB3E8359C0F68EBBB7898243E34E12A015B2685AB303C04D3A9E00671FF3DFF0A184E4A2ABEB2B666AF5B3A209C73D8EF29DCDB069C9F391EEE9DD0F74C7BCDE16F8F02E3B881
311
6122BBEB50665775B600549D8BB33A54A6BF940C028118BC6878C79958D6784F9DEAA6E26748386FFAF8D0D0101E2847B6563F5D8DC1D78F787BE00E2C941AE12148D4A81599FE8F68D4DA5CDED75530ADE138240300EE13B0FC13A1687FED6774662C05A2B7DFB186732F0D7A93545D8B0A6390AE5054D9CB582DA846D7A0
311
61B3358B45E2B52DDE63E114397EDB7E09233A579155D795BE76102CF277F4DF8B188C4F2879BEAE3C08347124BF9ED23B128259FE107D31E34A652F090B30B39E0D9AF917B76A2806135621A8A60681F16AF216514BBD02711585B5B1AE823F4B2D0369EA5B6BCB863072727FFC871CA6C9AB79A814D989057E9470A3D238
311
BC87CBB4A0EA49AFE2B86F22E499793CAA9047080450166BDC357524561E258C77CB697F1ABB32562CF87C3B7AA12F911EF19FB3E5C02222E887D08202A60A17151F5E053A86B437771088B4FEE14D652C43E8D939995D34545E12E2FF93D4E366EAD25F10CB7DED141563C3D0C447AF06078A91135FD4B9611583CB4BF3BD
311
167F2399CEAB0E0100F8FFC305F00F1711717173138B4B48C83022295DE657EFEDD97F238ECA80F528AFB4F8D67AD4E2594B9A3AA86D7487EFC313BA95745C186F0CDD84CC12DC9CB0424B42203D351FD9C0A3AF10CC7F388E0329279087386421F194F4A29464C1DEF7EF8BE515E4A199DCD5B909342598D8FE6A231F7133
311
6248D5CEC5454455C7BE383B3BC7B260FED27F703FDC39A170F3827239102F59D4DEE7FEF82EAA1A5E4BA94DCC4CC44E7E2EDE20F24244E4454369D2E87C3F823F193FD4FD27E1C23984B01898D15ABC20711A8A558054951A6AE280096BA36CBA439603B7B0B4C45F248C14B2383B4B5CD8ECECE4FF859AD4A6CA2326D020
311
EF090F4041D28DB66E5256B56232CC52829DE8060BAE6BBF37D4B7469B822454FE93210A3E8D15E69FFCF01123222611C51C4FD0A041A0CFA2471CF6BE38D2B20FA4C3525B5B8B586759475CF80ADFE67A284AC24651E52B8E683D24C2622642F27E7C3C22783BCF63648BC398BD6CD0D9C97E7E7E3EACB6126DB7A6C1FD9F
311
1031302EE67ED96F22B77C7CA0239BB324207559B105E4693EB26EC46182A92C9C0DBD24F29B31C5C5AC1F84300E0E17CEEAC15F5736FA4A98971E2F1423BFCD68D4BBD5F86E74B40A369F39507C88FCDB35D2DD8DEBEA4AF999E23CF2816D204200DF6E611781B9884C1AC8888B4DE397320472959434323A5A36B22A8E1F
311
721A270DF3BD65E4A31C11FF048AFB0D8B7B6881423793963A23CFCE935FC189ED36FAE35C46DA3574C979E4394BE52084F3081837BE033396D2EBD80F1F691B273F660D2B32FA27A33B1DE4ADA5F0FA4651511102DFA410DDA86E065272CA314D5249DF91B06BB92807B28EFD54F08F7B525252782CD276DD02E6B0319B13
311
DF87B1F6361AD6B28FC0D711CF445429B9E5A433CD493051C49A9E03DDB1B147D880253514A5DED88009018620EE229101C041950E2D8AA8E1F5F5438E0C0C0C60EEDEE9E3E0C051948C69F84BB7B2A48A1F3C8EB9E6864687F4F4F6F6E2FA87608ADAF9C5E117B7C1A737E710769DA1D15ECE6A84502AA855398712D5FB51
311
BE92E4EF824969CE18278798AC303C2C7980DD2500ADF8FB1E6D6C2FAAFF9987178923334A244758BAA01A9A1B70FA5097D01E1CC2A58DAD0EC94CE6430AA9B0C10D75E3C6BAC670EFBADEE1607739CE0FC18A2587E3EC3058562014C64219C69BC269082D5C2F4A659278D585755912176D78A1B641719C2A394CED495A1A
311
C5D583FD2F5EDD93308EA7EAE8A6DD396598BDBD3D4CFED62D18A5BDFDE0DD5C80D1A89BA62697B131AE7CE9A6594138582F1B37D68F1749AC7CB67A70695D48A4A056AC1FBD4E82358CEAE38F54B95A9016F9000F9879C0D9D131768635CA798895F27D6F1614F11F2838A83611AA51C9A3DDB539D42979C29F10465655C1
311
7BEC3E2760B80DCBF609198C7B171A531905F3EC218D696025975E986C6B4C666666787271F202805577DD5A3EF0CAFAF91B62DC4B2DB4217A7606282F31D8DDBC290593BAA93EA6353AFA9939B877978481E15CFC9F2755CDC00C538F63A4BA3E80AE009B73CA0185687D339A507D165B74290D6EE46D5C58148F020C3668
311
ABE9EF2F7549170DC80DB41FFC1D678FF19AEB10C7133832B104B80F691B3138F97A92D26E551F1F110400D45AC71A9B9AC41A1A1B1DAEED0B0810638EFFB511D46B121C6FEA0F38CD00E03CFFEB9713FE1F9C263E4DDEC160D0497FA9A132BA608584057FB15380825DE6C7FC3C667EE947D488A09898D8E939C4953BF4EC
311
9836344D2CC6B2971B2A21A572B06096F4982D2CC7232D46E8EA69DC83722E267754D777F97F96D5DA74E1E75178084D0E70F12AD33E5F71EF2AFA599B2BEBF60A5BE475F444F240CBFE8143C334E7ED9150FEEFEF7EB020C4DBED388DD1D6A167A76F3CBF119B578AE8CFA7736ACAFA4440A1C47185638A0D2F3EB5BDDEFD
311
A958FB13CE4AA4923D5BF840392D45544329525749734866684BF7F8D9D54D892E19BCA9F829A0F8BFCBEEA6CFDFC61D74EA1A645ED7A1FF241739F15694BD835B66FEC5677E40FE69BD3F91AE402F036537218A401CB0828604AD189E575015C6F3F6BBC8AC79CF6C70653847254B31551EFCBEB5978B9DB85D58D0FA41A9
311
DFE9C624834AA04949D24B5AE6D299E072D152D12097920F14AA92C31C3B97E28B6C2E6E9C23D63043ECBBC0A60FDF5BD0C33C127EA8A3308B8B6AFFEB28B4455BF6E7AF4FC6222728357EB8E46E85053E6A8843AB23295BF838ABDA94658FEF3F832F147046B4ACD6F7D48E8FCC9618582961C898D1C7A253C91BFECBDA6B
311
A18A1FCF70755DCCEE2222F41B76D23CA98D0CB3D95F0CF66D57FFF65E2A90F5DF40FC3187621E981BD0BC1D992787212688976B94A8F0C6EF646624B570B78E068826F87CE27041A95C9A4871FF65CC17FCB1639629AD6A9517000D63AC231F3D741CB8430777E7ECF80CE7A3F73C0F162F7E56AA71F4DA80A33CD6ACEE78
311
E2C11FAC03DAFCE929B106F8F6B3ED2DC71FF994BD9CEF4E9A94896EF1B6E2B7B4978168BCF0847A3D2A4F1B0500B926E634B174548E9FBAD27153FB5FC36799B1E6C7C38A94E1F9E996796D7B485E635D5287A2AE76FBD11A341DB3F8F810385BB7296391973DC6C37C452A9305AEBBE0CDB6C566DB59FE60C8E94B1FD090
311
354BF51439FFD1B48D725228FFA88C84F686F547107A7A235665A4593B7C34D748C1AC8D56DD5DA861EEFBADDECBBD65117E65851F90351AEB65F0EFCFF4BCFEF24CB7A5879699FAC437A7AF9099186CF006BB923A59E37D7A36A29FD8D2CBB914A5E9D0A8FD212FBF796AE9A67958FF1D5D8B85F78F96219D4714EB919929
311
241B6C018AAE0C02069F8D919961EC5DDFBFB7573E3AC8E08BFB7C8534BE6DE045B3CD63DBD71F7638BA2309CAE398EA3A7D8F98BBBC7AEB367EFA5CFA27A9F8F2F52FE878058E6209C026453F8E7E8A237DFC389E9590F6059B397CFD65183BBF936E86896612A5B5FEE49DAC8455D026218AFEBEC12B3523A45B57B82C9C
311
97E02ACFA1184DB18E48CF615DBF39C3CC6F0B4AE6BBEEA2E39D944E290302FA3DE33FA7E40296E2EF7BF1CD855BBECFAD0FD622BEE9746FC4FDFDE545AE6E3BC234CADF83A0FB76DFB145BF3828AE3436368AC24989454F8FF70A177672C711CAA1A76107218CF948CA01F873520E7A2B118EBB161ABAD432932029628B67
311
61590C98AB590C8C8C79798CE9F715BA696E839E9131A4BB68BE923F1747FBFF165331FFDD4D05997ACD168F12CA75348DAC04C7F509FE83898A8B421181AF492861CE81E4A2DD0A30850CFA95E05F097FF70F9E777310D584A75BA7018922E271DAB1D785671157685B7D383D3E074DDB4F1E44EF04B07BAAC75A062077C5
311
4B9752C738C9D804D402E02851F3F89605AF189738C18C021D2139EAF72513824E10DDD3047BACC8521ED7E98B257D1166903B1B08FA6F918FD7E162913FEC7D0EF4787E29C35FBA8C6E2C9C20E9AB30AE42CA2A01A090E7D010C1B5BF9CEE2A304BF3A987FB40D836979B79E18D70F257DA61E808472DD85B82761825779D
311
6B90CAEB0F23360C6F80A7D7D77545E95B3DFF0CF96A827F9B5BCECD2C9698718417EF80FEEDEE938AFF55859D0D540B7FE09435583A6F04874A0C7E8CF234DF4879722000167F5872CEC6BF3EF7E5A8CC8121E6A359227C8A29C95212F9F735BC72A887D56B8F309FC525BFB4FD767AAEC4AEFF249CFBBD2DE1AB9969A615
311
5C7D8DABC307E47324C1F916C7BCFF40ABA5644E9FFB9238D19ADADA49D9610F01ABBA57E4DFCBDCCBB2B93C8953206C91DE01B0E2651A6D6C31721915B31F7B7CBCE55466F6D70402788FA91D73BE4ADCBA99A35F17D6B83383704917D6833F0FA3CD45C926ADB8BC17999A4A0AFBCE2541F7B8CF4C2F5FBA611B3E626D64
311
407CB32C122DFF4EF8674D6EDBB86C8F7C6A16D50FA685E2CCA34F8F7D1D8265BB0042E9D7F1F666F7BE5FAA5184DF58E12122A42EF02F461B3F369AC746F96528AD208512AB56844CF75B97F352DF7995024FB02855385854F3798670D01CAC771AC3E1889EC25F61A20C1F8CAB46898817F9C47E2CDA1F286BF2F3582987
311
09FE567C91133E2638C8B53975E753EA8BFD3578B5F7186B7BF084EBA3F77BAC3132A5779902EC22AF2D2E79F42D324E083386DAEE9810D1B44A5DAA54513C7A71E52A4AB9257D975B621308FE4D2141CC3DCFE946C154A3C1DFCCA7629EC69ACFA831634ADDA93C0388D2A9A2DDAFCF957C6995BCE7FBB6DC4EBAE79E63EB
311
08E9A25F52F67076F7093CA545CA3053B5BF576DEAD4E0017143C5F759F32B2D6F145B52B67B48909B7C7FCA6586EE385A2189C16932CB6DDFD9152AE317C430492A578ED27B72D85D40C7C93C097939E1B50F4D67F05334FE9DC362C30B7FF561B95259138ECFD9274C8D695C31B14D4EAA9F3D7FA8DDF652F8C5DEFA2328
311
4C799B7D94416DEE81E05A866302DC70192A5368EA65E1CED8BF107A1E2D3119A71E85DC1A7B0C1E93274CE04DD0F2ABC8AC7C987FDB002B6F81757B43502EF7A0D92E416494FAEEA4C9C090CD9557AA4D532F4996A272B94355C5A0E4974EEA9627476F30809B94D8D8D860062E02204643BEC7D0438AF800FC7E2B26955D
311
595421E83C69E1A07E0E3122285835F014AD538188CF9737CE76D464A353FA55A001AB2526B84E985083693BC76FE211CA1D000679C889E3C009832C87E1AC2EDD05C302557422DF0800E316FCAC86978A371F025A6C7DAA9F333E7BD160403A1A06EA75AA9888FF01504B0304140006080800C05D4C4B28BB58AF80010000
311
9E0500003D00000034463631393531302D364545452D343437392D413331352D3038423232324633344539332F536368656D61732F436F6D6D6F6E536368656D612E786D6CBD544D4FC23018BEFB2B96DE15493C78601010A34B880709DEDFB52FD0D8B54BD70DF6EFED3AC0B12E6442E2716BFB3CEFF3D18E26FB440405EA
311
8C2B1992E1C323095052C5B8DC842437EBFB673219DF8DA659866649B798C078B48AE6410122242F2A4994AC7F93815DF85C049C8564CA0A901499DD886B2EB9B1E02448F358701A9235880C49A0119892A20C89D1B9FD768815CAD268CB5E0355B40B1E47F3E37A2020464BED06AA57CE8FCC20C3C3446D46761A2632A8C1
311
283D07031EFF2AE7CCB1BFEEE916E406DFAC8E36FFD99A9D60A6944090EEDC3B670C7DC13DE86B6B2C5C240D6E503BB85ACD579D513F1B9F9A69DC9CC22AFA80C426D40AF0B21EA168559156B6276F0F726A6BFF04DCD513A87A62CAD41FB24FCB2858B3952E3D852084DA25B9303C15687973CC8E8AAE11DF2836C38C6A9E
311
765E8C1BA1BFB1DC29CDFE518C8B5A7655A4ED7E77291ABEB80DBD82EC866ADE1B8D05AF9E35CF09D7A061F38A986D9EC412B8F0F65E5D81534D9B231D1E5A8FE577A241F3A5FD01504B0304140006080800C05D4C4BE336299B9F040000341300003E00000034463631393531302D364545452D343437392D413331352D30
311
38423232324633344539332F536368656D61732F47656E65726963536368656D612E786D6CD5585B6FE238147EDF5F61E5BD1498E9A895A02398AA5D1E2A5665BAAF96710C78D6B9C87168D95FBFE7F81242134A968E469A4855437C72AEDFB965F4F53551642B7421B3741C0D7AFD88889467B14CD7E3A834AB8BEBE8EBED
311
1FA3495108B3E01B91B0DBD1F3EC8E6C991A470F22155A72F73CBABC1D4D5921DCD1934863A11F990102A6F61466977B8AC49FB13C174CB3940BE4504A22E3713489B7F82406516225536940BD88E4E552493E8E564C1522225AB0384BD56E1C195DC26FAB13882C2EBD62E1FF9E5B0FCC453132C99548446A1872B6226707
311
8F1EF14C3DB1DD1952DDBBB384AD456779F387C51992E0ADCE12FED2622BC5CB1952FC9BDF3295E9206E961AB116DA7ACE45F76F07A26EFC3FD762FD7362FC3C0BAA4DB34C09E682CA5167BADCD16CF94370E331E2F1A3D852008AAD5D64BA2373478338AEB1583B905396D158182655E1B938D07926CF007CC7E85E670999
311
9B0D3827C0BF406BEF55C68CF5579DA32C8C85BE03EFE788787E8FEC95DC85C3E31A615658D81F9A34499612004CE69CAB12531B15A887ACA642C110F8C1A8C1974A85853F407794695C905C688E69B116550ACA946B9B4785FC179E0E229240B62665328E86D5BD2C800CF5D80289F35AC25E3DD51508F4BF9A74A0F5A557
311
BB3D284BC6FF59312E282F956A75C5D453906F48D11A876599E49425602400842995BDF02C4D012E226658F78A710416AC552831FDDEF0E6F0BABEBEA9DC36718CCEF4DAC5A0DF871AECBDD8F448F015F8DA113A473609D1751672B723874B2CAB21ECD6E284E51DCC7D1A47A00F60EC21DC4CC3CDC406DC03760A4E6C772F
311
2F4D561A9AE58C4B03F5B4838701472139EDCB36819A66C472B52AB1139C648956F43E0DAEC067B56B0818F5961D3D446B8F1E1E78C0EAD7EE02AF2895D813E88AC5014A7B436DBB20F778D40A1D9737EFE45B47D49CC8360F9966B15AABAC802C1005548A93EE469F5D55317CD8BF0AA86CABADB2A009D4D6F60CFE53AE37
311
0AFE8C45415B15D362A5A038E766E34B00F8C2E3E7098E2093B1C96349FDAEA158903B4BDAEA665F473FECE72186E3BDDCACCADA31839CD6D4FA7D47DF5469006ED340EBE71DF960DDEE88A3E17557039B58C278A1795BA8079419DA8FC5BA1BAA1A66238BF69C7B2BE4E6274839122B7D00BE8B7D52CF61B2D63216046008
311
C8B330FC10F8907787DEF061F47965BBA02FD8F53BA12F9827614979F53563D0BB1AD67A03DC0E00E2FB2CF3EFB457E70E65A3D7C78E7D700DBB45132AE9BBA5E468CD861408961AD8B00A55C2FCC677F4456039FD9F1907A5B3E2D0EE845FDBA2DAFA88C64195671AD6D282DA2E45B1F50A0D632B0D0B6718757DCC7C84A7
311
0A3656F222CDA6DBF07E204AB358961D1BE31E53A82C2C0D56DBF61A5608B5A252A932A1DC6E32462430853353EA30417C8199A662E946A4EF352268B8CDB9A9C6762515ACE8E09BBC031C608A02C4BA89C9DDC074E46E0E26A17BCBD4ED43270D03E3645ADB81F6D62CC07A3243EB81C07E01681DDF2DB4730631E6DDA6CB
311
BD048BE9F06AEB3CF06B31DD6C9575E37E9FF17161342C4C76D95519672A6509E0F5C4E71B4B1916440059F57D0921F496237E473A83E3E4E06353BD9D27593594D7B6707C08D22FEBDFBFFE03504B0304140006080800C05D4C4B8DFFFC99640100009B0300004500000034463631393531302D364545452D343437392D41
311
3331352D3038423232324633344539332F536368656D61732F52656E6465724D6174657269616C536368656D612E786D6CA5535D6BC230147DDFAF08799F5FDB600FADA20EA430D968A7AF12D36B1B481349529DFF7EF9A85A718860DFDA73EFB987734EA3D16FC5D10E946652C4B8DFE9610482CA9C8922C6B5D93CBFE3D1
311
F0291A6B0D26A3255464182D920FB4233CC629881CD49C18508CF000E3EE309A100D61622AAB4A8A33B2483F11CB639C545B0E1508438C3D3C0361192846DB7ACD198DF186700D182920B914FC1063A36AFBEE8FBA03FFD3CC1D1F4FC9E151A2AF59F628C5B7821D83FDFD3489305080F2EE04BF962195FB285E9D2DD35232
311
0A9E827AE357594914E42B1F5FE35F83688F60C4C91A6C946ED0668E8F244BC2EB0BA6E3BCCFC0B6A4B507F9F9F8D51EB315D9BA9E08D308E89F96931666E577837E2B4172199C68C4FE306156D47DF51C698C7B9D97FE5BEFE2190C3C38BB054E6E8163FB039CB4B993C80BF18D969203116D6BBD26238B821F9BB909AD6D
311
9C71B85BCD8C33D66FEA3D31B4BC0AD45BEA46BBEDDFEC0F504B0304140006080800C05D4C4BA5C60E164F000000570000004700000034463631393531302D364545452D343437392D413331352D3038423232324633344539332F4173736574446174612F41737365745461626C654F66436F6E74656E74732E62696E5361
311
60607074367771337275D6B5B430B7D035313734D375B4B470D1353332020AB85A1A5A18BB0A01D5E52696A4166526E6241614A4261625E625A70205C1801748BAA7E601659383933352731301504B0304140006080800C05D4C4BF865834058000000680000004500000034463631393531302D364545452D343437392D41
311
3331352D3038423232324633344539332F4173736574446174612F53747265616D56657273696F6E5461626C652E696E66558CBD0A80300C06F73E4B117FB66E451741D041DC5BF98480A492E4FDD18EAEC7DD4555D89EF28DF51A0B1BD8340C4DE7DD848B988C0ACF0649566493F2408C508DDEBB99D5129FF8F1AF8CF5B9
311
503E20FAE5A16B5AF702504B0304140006080800C05D4C4B8018E57836010000A20400003600000034463631393531302D364545452D343437392D413331352D3038423232324633344539332F4173736574446174612F636E782E786D6CCD94314FC3301085FF4A648931765C214095E30AC1D209242A06B6AB7329561D3B
311
B22F08FE3D769B0154C4D4A1EBE9BBBBE727BF53ABCFC1551F18930DBE659237AC426F4267FDAE6513F5F51DAB565AC510E807C62A0F03B6AC949956BB18A6712E75D8C3E44AD559BF9F8BF729216D60EBF0A97F089ED0536295719052CB9279C701384C143A4C7BDE0101973C620A53349827911D709E64220261C7F4A291
311
B7B56C6AB9D848B9BCBE5936F24D89426AB50DC1CDBCCDCB6218AF168D39EE65BA51A2005A4DD1CE54790DD37FA9E45BEB95C8A45689627665EEA0AF3177C0383A6B80B279221842AA338430287184B512C5855F5E3C626FBD2D2DEB2C0D28C4E72C102359BC404FFE537B7E6FD63E11788397ECC8A9C6F3FBF072F845AFC7
311
581E7273796939D5C8ADEFCF9015713827393AE5BAE86F504B0304140006080800C05D4C4B7D8F01DFE6000000600100006700000034463631393531302D364545452D343437392D413331352D3038423232324633344539332F5265736F75726365732F41433744463245432D393837382D343731362D413938442D363232
311
3837384539313833452F7468756D626E61696C2F302F636E782E786D6C4D90C14E042110447F65D289C7196063D46C18F6273C7931C8F48E64199A4063F4EF05E5B0A7EA54BF74BA4A5FBE8F307D612E9EE20A6A91306174B4F9B8AF50F93ABFC074313A13F11D0653B407AED06D307ACF54D3B036BCDA1ABA1B7CBC0D73C7
311
88D9BBF71477985CB0A5AC50DC271E76B19569C3725B36CB76514BC642353B6C07D81F380EB88C9671037392EA79567256A757A5CE8F4F67A9DEB4E8A4D11F4461F03E32664A0F27E9A88DB1FD23B5E880D135FB41F51060EE9ED3A22D8D2E9C5BFE01F14F6A904D297867B9D524C831F2DC20B48716FFB0D1A2E76DF25746
311
D3DE8DF905504B0304140006080800C05D4C4BA233C2345D000000800000006500000034463631393531302D364545452D343437392D413331352D3038423232324633344539332F5265736F75726365732F41433744463245432D393837382D343731362D413938442D3632323837384539313833452F7468756D626E6169
311
6C2F636E782E786D6C4D8B490E80201004BF42E6EE76F3C0F216234B883063108CCF170C074F95AE5473F5C4C06E932E4F28601967600677D21E9D8092EDB002539227A2FCCB80E1168D80A6417297A89C5D6963B7129A0D1E8F2EE73AA7B62BBEB8B27DE50B504B0304140006080800C05D4C4BBE89762363000000880000
311
005B00000034463631393531302D364545452D343437392D413331352D3038423232324633344539332F5265736F75726365732F41433744463245432D393837382D343731362D413938442D3632323837384539313833452F636E782E786D6C4DCC3B0E80201004D0AB90EDFD75167CCE820A4A845D83603CBE602CAC2679
311
9919AEEEE0D965E2E908050C6D0FCCE04C8BC355404EB6198129C92351FAD580A10E464065907C8D948F8F166375F655BDC3FDC3B4E530A176BE7057BDC43B2A593FE403504B0304140006080800C05D4C4B18988F577E000000A30000003600000034463631393531302D364545452D343437392D413331352D3038423232
311
324633344539332F5265736F75726365732F636E782E786D6C4DCCD10AC2201805E05791FFDE4A8BA9A08EB1D97B8CE686E474D88C1E3F8D5D7475E0E39C23DBCFEAD1DBA6978B4101395D00D9F088930B8B82BCCF98036AB54C31EE7F3540615CAD82CAA0E59262DE0E9AEC3C665FD5BBF03CB0EBD970A7A6C782338E6F8C
311
34B8137CC00DA5058C20FC6ACAE25C27257E7F25EBBDFE02504B0304140006080800C05D4C4B120CD8070A010000550300003400000034463631393531302D364545452D343437392D413331352D3038423232324633344539332F536368656D61732F636E782E786D6CCD93BD4E042114855F65426239304C8C9A0DC31616
311
56366A65877077250BDC093F46DF5E582976133B2DB683932F37E71CB862FBE9DDF00131590C0BE1742203048DC686FD424ADE8D7764D84A1111F3094686A03C2CA4C9448A7DC4B276C9C04E15D75467C3A18BF7E83D8667FD0E5E91413B95D242D2F14A55C968201DA85159514E23242C51439D90AD873E414750190C91F3
311
C46F473E8D7C7EE17C737DB399F8AB608D94E20DD175DE860C11D7AB79D2588FA11A9A046B801425DA4EB514449EBAA3B50FC12A2145CAB1B6D0C9FCB55652ADABB35AE55A163B823F8C14AC853D8BFC0001A2D5979AF9CCDEBF857E8260203ED6978A56B94BCDFE9BCBBF55C08E1B50BF415B08F90D504B03041400060808
311
00C05D4C4BE3603EBE7A000000C20000002C00000034463631393531302D364545452D343437392D413331352D3038423232324633344539332F636E782E786D6C6DCD410EC2201085E1AB90D9DBEACE05D09878023D01A1D34A8419C380F1F82DA68B9AB8FDFEC93C3D7C52546FCC12980C9CBA232824CF63A0D9402DD3E1
311
0C6AB03A3397DD192872090D3406ABE7CCF5B5D18893ABB1690CF4DCF02282E5EA8A5BB96FFE536F285CB347F95BEFFE81C9ED5AFF9D5B1FB575BB00504B0304140006080800C05D4C4BEC1429827E000000A300000007000000636E782E786D6C4D8CDF0AC2201C465F457EF796FFB626A8A3C0BDC7686E489B86CDE8F1D3
311
D845571F1CBE7354FFD956F476E9E563D0404F04900BF738F9B068C8FB8C3B40BD5129C6FDEF06288C9BD3503118B5A4989F079ADC3CE6B5D2D587C701C5D052D950825B6B2D16E222F195D30693EEC6181BB8B09217E35C9532BF5ED99A375F504B0304140006080800C05D4C4BCA1DF9C9A900000073010000130000005B
311
436F6E74656E745F54797065735D2E786D6CA590410EC2300C04BF12E5DEBA70400835E500FC800F84E0B411AD13252E2ABF27A55740421CEDDDD9B55CEFA7A117778CC979527255565220197F75D42A39B22DB652EC9BFAFC089844F65252B2630E3B80643A1C742A7D40CA8AF571D09CC7D842D0E6A65B8475556DC07862
311
242E78CE904D7D44ABC79EC569CAEBA537E3521C16DF5CA5A40EA17746733E0B6615DE7217475F386F18B9481C510F1F021CD9FF027EA0E1F5C4E609504B0304140006080800C05D4C4B3DEE336E64000000790000001B0000006175746F6465736B2D64657369676E2D7061636B6167652E786D6C35CBC10E83200C00D05F
311
21DCA56CA76D41FC96062B120735B69A7DBE268BB7777961F8D5AF396893C2ADB70FE7ADA196782C2DF776D7A97B5933C430F15651E5469C55D70F80A4992A3ADC954792C525AE70A1E4D6AD9816CC044FEFDF01FE3FDE907802504B0304140006080800C05D4C4BCBC3C7CDF8000000960100003700000034463631393531
311
302D364545452D343437392D413331352D3038423232324633344539332F4173736574446174612F636F72652E786D6C8550CB6E833010FC15B477839750F29071044AF3053DF56619875A0936F2A3EAE7D70E546A4F3DED6A76667677D8F96B7E149FCA796D4D07585228949176D466EA20861B394071E6CC591B7ED1A030
311
62561D6418389B9C8DCB06496B8232193576541B28BC57010AF9484D075E7EA859942286C4F0F77211F22E265562B9F2388B518F9B548FC94DDFB472C0AFAF38D0617F2497BE46D2D0634B869743EADABAC7663734C3FECAAA2CE62CE8F967BB744A043502AF29EE095282F51BE2A9694F14DF5995999CF9E0D2CFDBD2FC1D
311
F03E5F7D1141B06A9DFE718DCBF8BF6BD426ECEACD755578E0988E7C0E38AB724AA93C234C3527CABF01504B0304140006080800C05D4C4B6F5F7BC9F30000008E0100006800000034463631393531302D364545452D343437392D413331352D3038423232324633344539332F5265736F75726365732F4143374446324543
311
2D393837382D343731362D413938442D3632323837384539313833452F7468756D626E61696C2F302F636F72652E786D6C8550CB6E833010FC15B4778397504822E328A8CD17F4D49B651C6225D8C88FAA9F5F3B50A93DF5B4ABD999D9DD61A7AFF9517C2AE7B5353D6049A15046DA519BA98718AE640FC58933676DF84583
311
C28859F59061E06C72362E1B24AD09CA64D4D8516DA0F05E0528E423353D787953B328450C89E1EFE522E45D4CAAC472E57116A31E37A91E939BBE6AE5805FDE70A0437720AFE71A49430F2D195EF6A96BEB3336BBA119BA0BABB298B3A0E79FEDD22911D408BCA6D811A404EB77C463D31E297EB02A3339F3C1A59FB7A5F9
311
3BE094552BFAC72D2EE3FF6E519BB0AB37B755E181633AEE39E0ACCAE9A4F28C2ED59C24FF06504B0304140006080800C05D4C4BAB0DF6CFF9000000960100006600000034463631393531302D364545452D343437392D413331352D3038423232324633344539332F5265736F75726365732F41433744463245432D393837
311
382D343731362D413938442D3632323837384539313833452F7468756D626E61696C2F636F72652E786D6C8550CB6E833010FC15B477834D2824917114D4E60B7AEACDB51D62056CE447D4CFAF1DA8D49E7ADAD5ECCCECEED0D3D73C150FE5BCB6A6075262289411566A33F610C315EDA13831EAAC0DBF6850183EAB1E320C
311
8C8ECEC66583843541998C1A2BD50672EF5580424CA9E9C18B9B9A79C963480C7F2F172EEE7C542529571EA3316AB949B54C6EFAAA9503767923031EBA037A3DD70435F8D0A2E1659FBAB63E936637344377A15516331AF4FCB35D38C58392C06A4C3A443022F53B21C7A63D62F241ABCC64D407977EDE96E6EF80855B9C3F
311
0DD713ADD6E91FD7B8C8FF5DA33661576FAEABC20323E9C8E780D12AA794CA33C25473A2EC1B504B0304140006080800C05D4C4B4DE89EBB0D010000B10100005C00000034463631393531302D364545452D343437392D413331352D3038423232324633344539332F5265736F75726365732F41433744463245432D393837
311
382D343731362D413938442D3632323837384539313833452F636F72652E786D6C8550CB6E833010FC15B47703EB501E91710409F9829E7AB3C02156821D61BBEAE7D74EA8D49E7ADAD5ECCCCEEEB0C3D7724F3EE56A95D12D609A4322F56826A5E716BCBB901A920367AB31EE170D122D16D9428481B37935FEB141A3D14E
311
EA886A33C90D14D64A07C9780F4D0B76BCCA45A4C2BBC0B0B7F421C69B98658AE98BC799F76ADAA46A0ADBD445C915F879C03EEFAB869C3A8AA4C89B92F46F75E84ADA61B1EB8BBE3AB32C8A39736AF9711F57299C9C80D31C2B823941FA8EB82FCA7D8E1F2C8B4CCEAC5BC3CF9B69FC0E7877AC4E673A1C49535735292A2C
311
49D7D42752521A80A1C17A37B0EC25FC63E81FD3FF865E69B7A39BE14B618163B8FF39E02C8B0186F24C37D41836FF06504B0304140006080800C05D4C4B5F9FA090F9000000960100003700000034463631393531302D364545452D343437392D413331352D3038423232324633344539332F5265736F75726365732F636F
311
72652E786D6C8550CB6E833010FC15B477834D2824917114D4E603AA9E7AB3CC865A0936F2A3EAE7D70E546A4F3DED6A76667677F8E96BBE179FE8BCB6A607565228D0283B6A33F510C395ECA13809EEAC0DBF68501839630F1906C12767E3B241CA9A8026A3C68EB881D27B0C50A87B6A7AF0EA036759CA1812C3DFCA45AA
311
9B9CB064E5CA133C463D6E523D26377DD5E8405C5ED84087EE409ECF35230D3DB46478DAA7AEADCFACD90DCDD05D7895C582073DFF6C570E65C011444D59471825AC7E63ECD8B447CADE79959982FBE0D2CFDBD2FC1D8857F4363A859E57EBF48F6B5CC6FF5DA33661576FAEABC28360E9C8C740F02AA794CA23C25473A2E2
311
1B504B0304140006080800C05D4C4B0BD2C3A8F6000000940100003500000034463631393531302D364545452D343437392D413331352D3038423232324633344539332F536368656D61732F636F72652E786D6C8550CB6E833010FC15B477839750F2907114D4E607DA536F9671A89560233FAA7E7E6DA0527BEA6957B333
311
B3BBC3CE5FD3A3F854CE6B6B3AC09242A18CB48336630731DCC8018A3367CEDAF08B06851193EA20C3C0D9E86C9C37485A1394C9A8B183DA40E1BD0A50C8476A3AF0F2434DA214312486BF97B3907731AA12CB95C7598C7AD8A47A486EFAA695037E7DC19EF6FB2379BED4481A7A6C49FF74485D5B5FB0D9F54DBFBFB22A8B
311
390B7AFAD92E9D12410DC06B8A7B829460FD86786ADA13C577566526673EB8F4F3B6347F07FC75B9D3B36A9DFDF18CF3F0BF67D426ECEACD735578E0984E5C069C5539A354960053CD79F26F504B0304140006080800C05D4C4BDEE86F18FF000000D80100002D00000034463631393531302D364545452D343437392D4133
311
31352D3038423232324633344539332F636F72652E786D6C95514B6EC32014BC0A628F6DB0E37C84895AC9394157DD5178715162B0F8543D7EA176A574D7AE40C3CC3C661E3F7FCE77F4013E1867074CAB0623B0CA6963A701A77825078CCE827BE7E2030D232B67187081B1E0937769D920E56C045B50EB346CA00C012246
311
EA9E2F030EEA1D6659C9143323DCAA45AA9B9CA0A2D5CA133C9AF947AA3CC8081A0BD6D03DA10DA1EC85D253D79F1AFACAEBC2143C191B5BB60D83F90D34724BCC91B28CF27A7DCEB464F446323A7FD25C0D782CBA4B4F8FBB6CDD8FE348BA6E7F244F2DDD91E6F0CC18BBB4DD786CB349160B1EA2CFD56C26A584BFCA57E1
311
AF6869D1FF8CB62A02160FA1EAD2B3E0F5F712F2597622BE00504B0304140006080800C05D4C4B6B2E290E07010000B201000008000000636F72652E786D6C8D50416EC32010FC0ADA3B3638AE9D449828569B17F4D41B05E2A2D8601988DADF1762576A6F3DED6A66766776D9E9731AD15D2FDE38DB012D08206DA553C60E
311
1DC470C57B4027CE16E7C22F19202B26DD418681B3617171DE20E96CD036A3D629BD81C27B1D00C931351D78F9A12751881892C2DF8A59C89B1874418B55C75930D3CFA85CB4085A01AF086D31259856AF941EEBE648E81B2BB392B3188DDAAC8C4AEEE66AF402FCF2427BD2B707FC7CAE28AEC9A1C1FDD33E754D75A6F5AE
311
AFFBF6C2CA3CCC990F4BBA795B927206E4C53DFBB272A5387B776EDC04299442CE8E5FC0092B33F127749CD53F421B1B76D5B6709DF0C0690AF4209271FE602A8FF7A69ABFCDBF01504B01021400140006080800C05D4C4BF8F750521F010000A80100004F000000000000000000000000000000000034463631393531302D
311
364545452D343437392D413331352D3038423232324633344539332F4173736574446174612F446566696E6974696F6E4974657261746F7250726F706572746965732E62696E504B01021400140006080800C05D4C4B4FA546621D0100003002000045000000000000000000000000008C01000034463631393531302D3645
311
45452D343437392D413331352D3038423232324633344539332F4173736574446174612F496E7374616E636550726F706572746965732E62696E504B01021400140006080800C05D4C4B88E57597CD3F0000904100006B000000000000000000000000000C03000034463631393531302D364545452D343437392D41333135
311
2D3038423232324633344539332F5265736F75726365732F41433744463245432D393837382D343731362D413938442D3632323837384539313833452F7468756D626E61696C2F302F67656E657269635F706E67504B01021400140006080800C05D4C4B28BB58AF800100009E0500003D0000000000000000000000000062
311
43000034463631393531302D364545452D343437392D413331352D3038423232324633344539332F536368656D61732F436F6D6D6F6E536368656D612E786D6C504B01021400140006080800C05D4C4BE336299B9F040000341300003E000000000000000000000000003D45000034463631393531302D364545452D343437
311
392D413331352D3038423232324633344539332F536368656D61732F47656E65726963536368656D612E786D6C504B01021400140006080800C05D4C4B8DFFFC99640100009B0300004500000000000000000000000000384A000034463631393531302D364545452D343437392D413331352D303842323232463334453933
311
2F536368656D61732F52656E6465724D6174657269616C536368656D612E786D6C504B01021400140006080800C05D4C4BA5C60E164F000000570000004700000000000000000000000000FF4B000034463631393531302D364545452D343437392D413331352D3038423232324633344539332F4173736574446174612F41
311
737365745461626C654F66436F6E74656E74732E62696E504B01021400140006080800C05D4C4BF865834058000000680000004500000000000000000000000000B34C000034463631393531302D364545452D343437392D413331352D3038423232324633344539332F4173736574446174612F53747265616D5665727369
311
6F6E5461626C652E696E66504B01021400140006080800C05D4C4B8018E57836010000A204000036000000000000000000000000006E4D000034463631393531302D364545452D343437392D413331352D3038423232324633344539332F4173736574446174612F636E782E786D6C504B01021400140006080800C05D4C4B
311
7D8F01DFE6000000600100006700000000000000000000000000F84E000034463631393531302D364545452D343437392D413331352D3038423232324633344539332F5265736F75726365732F41433744463245432D393837382D343731362D413938442D3632323837384539313833452F7468756D626E61696C2F302F63
311
6E782E786D6C504B01021400140006080800C05D4C4BA233C2345D0000008000000065000000000000000000000000006350000034463631393531302D364545452D343437392D413331352D3038423232324633344539332F5265736F75726365732F41433744463245432D393837382D343731362D413938442D36323238
311
37384539313833452F7468756D626E61696C2F636E782E786D6C504B01021400140006080800C05D4C4BBE89762363000000880000005B000000000000000000000000004351000034463631393531302D364545452D343437392D413331352D3038423232324633344539332F5265736F75726365732F4143374446324543
311
2D393837382D343731362D413938442D3632323837384539313833452F636E782E786D6C504B01021400140006080800C05D4C4B18988F577E000000A300000036000000000000000000000000001F52000034463631393531302D364545452D343437392D413331352D3038423232324633344539332F5265736F75726365
311
732F636E782E786D6C504B01021400140006080800C05D4C4B120CD8070A010000550300003400000000000000000000000000F152000034463631393531302D364545452D343437392D413331352D3038423232324633344539332F536368656D61732F636E782E786D6C504B01021400140006080800C05D4C4BE3603EBE
311
7A000000C20000002C000000000000000000000000004D54000034463631393531302D364545452D343437392D413331352D3038423232324633344539332F636E782E786D6C504B01021400140006080800C05D4C4BEC1429827E000000A3000000070000000000000000000000000011550000636E782E786D6C504B0102
311
1400140006080800C05D4C4BCA1DF9C9A9000000730100001300000000000000000000000000B45500005B436F6E74656E745F54797065735D2E786D6C504B01021400140006080800C05D4C4B3DEE336E64000000790000001B000000000000000000000000008E5600006175746F6465736B2D64657369676E2D7061636B
311
6167652E786D6C504B01021400140006080800C05D4C4BCBC3C7CDF80000009601000037000000000000000000000000002B57000034463631393531302D364545452D343437392D413331352D3038423232324633344539332F4173736574446174612F636F72652E786D6C504B01021400140006080800C05D4C4B6F5F7B
311
C9F30000008E01000068000000000000000000000000007858000034463631393531302D364545452D343437392D413331352D3038423232324633344539332F5265736F75726365732F41433744463245432D393837382D343731362D413938442D3632323837384539313833452F7468756D626E61696C2F302F636F7265
311
2E786D6C504B01021400140006080800C05D4C4BAB0DF6CFF9000000960100006600000000000000000000000000F159000034463631393531302D364545452D343437392D413331352D3038423232324633344539332F5265736F75726365732F41433744463245432D393837382D343731362D413938442D363232383738
311
4539313833452F7468756D626E61696C2F636F72652E786D6C504B01021400140006080800C05D4C4B4DE89EBB0D010000B10100005C000000000000000000000000006E5B000034463631393531302D364545452D343437392D413331352D3038423232324633344539332F5265736F75726365732F41433744463245432D
311
393837382D343731362D413938442D3632323837384539313833452F636F72652E786D6C504B01021400140006080800C05D4C4B5F9FA090F9000000960100003700000000000000000000000000F55C000034463631393531302D364545452D343437392D413331352D3038423232324633344539332F5265736F75726365
311
732F636F72652E786D6C504B01021400140006080800C05D4C4B0BD2C3A8F6000000940100003500000000000000000000000000435E000034463631393531302D364545452D343437392D413331352D3038423232324633344539332F536368656D61732F636F72652E786D6C504B01021400140006080800C05D4C4BDEE8
311
6F18FF000000D80100002D000000000000000000000000008C5F000034463631393531302D364545452D343437392D413331352D3038423232324633344539332F636F72652E786D6C504B01021400140006080800C05D4C4B6B2E290E07010000B20100000800000000000000000000000000D6600000636F72652E786D6C
311
504B0506000000001A001A00210B0000036200000000
310
504B0304140006080800C05D4C4B000000000000000000000000370000006662782F44353741464234452D323837442D344432412D393430342D3833413644443338333145372F617474726962757465732E62696E504B0304140006080800C05D4C4B000000000000000000000000350000006662782F4435374146423445
310
2D323837442D344432412D393430342D3833413644443338333145372F76657274696365732E62696E504B0304140006080800C05D4C4BF270F1330600000004000000360000006662782F44353741464234452D323837442D344432412D393430342D3833413644443338333145372F747269616E676C65732E62696E6366
310
60600000504B0304140006080800C05D4C4B88E57597CD3F000090410000420000006662782F44353741464234452D323837442D344432412D393430342D3833413644443338333145372F7265736F75726365732F322F305F67656E657269632E706E67355B773CD4FF1FBF73E71C0E67EF7576C9DEF3EC995D46C6A1EC50
310
46649CBDF79E192942562825CE965D8A868C2842C8DE9FDFD1F7E7F138F7078FCF6B3F5FCFD7EBFDFEC41B196891913091804020321D6D7513FC77D8C5070EC3FFEE51B21F068154CC75D455CC028A3EA68992803810109FDDE5D5CEC5521B28A1B422BF80741695D5B529DA1C2D058AD2388BDA9F476F7C2CADC939304173
310
DBF48A452BF8A700C0C70C3D121C1AA15A5270C22E2B9E28763651F7DA0D12CE11077B2ECD0D560B5E3DE2368B1E65C5E1C87384A4CC5F2D9FB8BE39E9B77C753783A37998F5CEF1B4FEE553463245C9712270880DF339E0B882A6BA713D865F6F384C842D440934EF264F4A304F8DE4EEFA1E2BF5E2D91F5ADD9613D6E31D
310
DB33ED31DB1D7916CAF091286EA3D31B9CFECB78BB0060245B943C4C040119FF780A74DD308BA9D028678674EB5504ECF284EE814DAED07440BAF649BE4B55DA2890F4D73E2D489A59EE54FDB0A85B59F2F52C4858A02705C4815A792B0C4A996A2023ECB195073E115E3E3647F64243A8338F2000BCB58DA5692C7E7C3D41
310
3F963FEDF3CF00FBB0F831A9D51360FECA43819F527B89FA260EB63C5DA676830AA3626A3693B23F1A17A0DFFCE3EE164E31B5365EDF0C89EF64D8E38AB0BA9A1117D7C3A0EC44F44F4023095E80BA610DE336D0F99593A88BFC5306E72DF98F7FD132ED95878DF2964EA7E43071359FD83B2BDF9C6B5BDF768F0F3C0FC351
310
199526F53D9460A34511F75D1B63E488178569472C91A94497807A3FD4A390C6558F26D416365C3656DE6E769DA9D8FC73774E1709812842DD8EF96AED1960F79D21B395CDDFE6F92CB4EB962A4668C76990E2EF29798C8941D67DA50F4A5F947872460F1F6FDB794E8A29FD7AC0C0D6E0714339CE258FB17AE8535221E346
310
4A10F29A0BE5EEECEFC5675926A89F49EB14E5711894F6586DB5754EB4D5DA9C6437EBA57DB97A24F8B8A8DB295FFD73266CF57E82694DF5166DDF93573AFE9C9C5EB05F8FEF8E89E0A8917B0B3724DB7BEBB53252581EFC3E38166BA131A3A5B42FE2AD00A769BBFA4458D2DE7822F8C4F63D0B8E21B285AE13325F3410A4
310
35C648C9D91FDEB109E73CEDA7BC796961AF79175E1A3CE4C5E8B0D009B0C9E29EFD98BC8E97554E3D8D838424E270F7685226E5AC268E021EDE3522D583E8F20C0BDE2959EF5BBFEEDAB32FE9A3ED0E39F211A86AA9DEBFC68182EDED132AB8BB794442D2D7EA9F4D8BFF52BC4D55BB165124EE90A42D101E67BBBB292FFB
310
4F66DE5BF2300E44546757DA7CEF8932BFC9F92A0707953491A55C5A5ACEDABD9FA1AEA01BAC3DC5A24E22E7C47213493996EFBC369D086ED9397C9BA6C7F9855C7BD5E15BFC8C53DB3D2A4C5901A57ACD2FBDF4D1676E95338B2C2BCE65FDA4C64F5FEFDC7D9CA5AA1FCF11E193F2FDABF0F4916BF13FB916A224380E6462
310
A9815F2300DC49CC4DF8D055CEF76462F4B7A7ACA7365C2707891370BC1D0AA6203C44CCAB47084FEC057F27FFCD57F89B8B9852459798A675C66BD7CE572CAF71FF7E6D7ECF7BF62CAB7B3F1107DCD04DC55A3F9961700286141C94A4F771FEB2BCDA2DDEE0CB0BAE402FF1DB0100F8E475DFFFC074DDB4498AB7D186A765
310
4DDB1CB680D703D47CEB4E72F8CB13D86A4AA68116E26387B93FD6738779B34FEDB8E517EDF2BAF28D9BE93A1D3A164320E07D42E514725C29515FF361754213EDE06B079A2E99EB1CA82A02019EADEEB87B9AF005BD04BBCECB14AACD6B24EFBE482194A97DD32400685FF1FEF1544D1B14EFB1E7F08E6D2CD2AF52DE757F
310
35F5E62332EE88EA26417AD5C3E0E319D68F25414E6D672BD4522B278C57D18F0113921C71D96527E091F00CEB15AE23D24667369BD3CEFA10C7549D930890BA4366F4EBC55F01F746109F98ABCDD5A3EE06619C6AD78AB33E48E4C9BD21BF7478B385EC05C4F8987E2C1BFA0A60EBEDAA0AE0B015C2720ECE180FB6F2DEFB
310
EB822D96338C9B63822183BBF52FB664A7AE57003AABCE512BF77E7E31BDA2E739AC4C131657DDFE5225E900FB56CC01CDE808FA4A9C9DA16AC679656BB64796283D89812B8F91136AE18EE5EBBAF47A73BE3C153EB5D4CD491B4BFB4FE690A4CF9ABA08C0D8AA64220C438C96EA6CA80B58FE5761E697B3A292EB9FBDA502
310
FA863E49FE694ADDFFF9D62C520BDD1A22014147A0903A05B9B729F54272EF83931FEEC057BFF8C8055C279EAC5C0011804828734024F6CFA319C9CC6867C727184465CD9BB7ED386AFFD96B294A85E3802FAE47244602D8273615952B98C4F23F7EAE4463D9D638EEE374A20959E0FE519C4CFB0FBFE5DD80C2AA3F9DB961
310
D1BDE57E67C9BB47B77FDD74EE3094F5DBBE3EBC1FBDB7393F5116263009E2EFE1AF9A221B2AE234C902BF70E9F280ED23E73908361565964333A3F01D0B006AF32FB21AA1316744B489D5A198E85299241735BE559675130955C902A8ED761FC0DBE337A9F91919AF5CE32AF902ADF9AB2615E00E8A94586BA1A90839B618
310
32FF1BFB76D2EFADE6DB1BA04CCAD3DA649E7E2A0219F592E22F2AD54847EEA8E42271011E9074F8F3DD9FBA6CDF88FFC9FC7E811AD1CA8F4557CE4AFC7BBEDCF0114A48689F20A584520C74DA8127124B767E2FB91A6B186246727BE63C9445BAE02088D58B8EFDC0F1072407CD9B89A13F6303B4A928F593AD489B58E686
310
9325790ADC406036C591729FE14021F94B7796BB11848D463536A092A26F077F94639F7CEEE2A724C66EC885F4A24F8B8A0AC321F8FD149BA529460FAA34E4663C02D41FDF80BCA222D42F0ABFF8490F4FA74C673807C2051D8E467B47B616072860069A9A303ABA9B319D58404461401B0A0F9BE5E1E151C14BC33B32ABE0
310
3DDE91708DFAEB15E7C0D593C86BB7D7EC17BE56E57975F077BFD5525F3A1A361D584A75E08CF29FC7B44B2B3085014F3A5A14517377C3F6B8F37E59514C3B12F8AACDEDDA4DFC49BE5710101534CD6FB6DE15B50F11A09472AABA727F0C49D9CB906B158030065F48EB3625E010CEC1D511D0053474B11E6A4F01C0D6EF1B
310
ED3A944FDEC70E0DDCDC756C86545910E0DAE3BE3AA9A404574C2995CD5CAF9549226BC94B4F4F0F5F9086F418F6B32346464610D8BC7391D3C3A3CCF04CFC1FB2A3A3170E369511868F14EEA4E5E438CC73DB1F3248AA94B6B2FF33B222FF3D1E7BF146CAD229770158063BCE4F5391964DF62F7E52A7BE0EEA829C9E13C4
310
C147D6F93FE59E111DAB5E4594D6F3CD1AD375EE039930EFE5AF2BB2D41C83C7DABD8C659BAFBE8FAB392CA634F3D15C1D945DB4588D2B0824A4EC928AAC565557CA2F0DAA588CA5BE30B3A8004F7BF005E96CBF891D7F18112A3619FDF530DC8AA64954258E1811789B5189B49B4EB53F5F89F7D37523894F3EB57B373763
310
C91E502F52CC99EB7BDDF933FC324C4FFC2561DFFA7339FAFDD0A4BFBE6D3A8FF9ED1FC49898139864602458968913181918F719CCF5A68B2EE9C1FF050E34E63107003B8120FA982C21B30A874E4F5E4B38D5A8290C4B8D9BE48A0BE31EA995BDC37AC6DE90BA17D259DEF53605D55922FEB1855D915B659FBEB350EE0DFB
310
2F9F766E1C84CC8964B75D08667445EAB966015F63A18A9E0A325C1B3DC628C0D3CB60F767FA93CC65F25458BD23C3B312716E5F40E5858AC06EBA9AB14F95DB99147B832069201541D09A0D856E12C629CF32683760EE855537D1901988D5EBC156676C7DD51D7207CF3267AF1D76C2AD867315E44618015313A98B19941C
310
696FED3461CAA9B5415F918556D7802EDACEFD6B2E45853A9735DFC9DBF7E440F9319F8B6805A973BCCDC76C069A9144E51F187EDCC12FC31B5DEAAF0A76137199B106EC84ADA6B6EE697D4E6A96E007417F4E880E8B1E89B4BCE9D81EF611E2ED8F0C1A6C25F620FAFAAB656A7C42D464880E8AFAB0E0FC8EA38CA9A8AEEA
310
EE3E4648BA4680270A89743CDD3E6C6CBF34B7B640EFA285ABC7EA0A1E28F3CC963D114A80123EE66D0AF7D5380EB41909B605AB4765B709B808590458157E69BA1378FEC4B48CAF6A730E3BE3C5EF2DD1A5EAF94B1DDE50CEB55DDFD7EE9A16747FA4B223359FB1FCC69E1194892BABB93A1D5C4E807AC0EA2E30180811E7
310
7A2291F6E7F7FAA5E0F60215BC6024E48DE436C511F0628B8CA189982D4D83CCA17D305A7E923C37941CFDFDCD93ACAF735EF5F0E61BBD3E6C41A59B242790D3A3BAC7064DCD89AA2E37214EC839820949D5CAA31E240D2948E48F690298974A96BA9A8432BC90F5071D6537C9666EA4564796B7AFFFA548077BEEA75F6308
310
3435074BA182F3699557397F71548383FDA8CA34D99B981E72835ECDA5DDDC151315173D05A21F651AAF8524E88209E2E7A737ED1045800CE3390050BCFB8BE588DF111617874C62575039CA588EEFDEFEFE319B739DE2EDC147092A262611E159650E787917885EF08F1F51B8F2D8A71D60B58B190FEF9541A1BE94BC19FE
310
A50784DA1419FE4B0FB51B8D36B5FF8E1286FD8AF42B91E59A5F1CC4D60174E764045FD8C57B18209B217F89A62252BD20BE0E63E12B8E8F029FE19E0E8D0870F58721A557082250D5424F7909369376E41666C0EE77CD87CB283F661D5FB6D0DA023CB67320A20DC7BE661E9E1BFE5463085C557DA1FF9BE835733766C3D1
310
39F2CF9E2208873AD0EB4814DE9E6BF2CAF81614D4D43906ED1C05A3265CABBFE192770FC2F64F940CB6B17B5F166F133C9AEEAD2641807C3E69515171DD74C4A85311513D6EC9530B3B601B6BA3EBFF3B5C3D2F7D69765141E345F75433953D013ADDF8F6AA7DC3F4A7563FE5C7D367937E2900D7EAD0F9FC9A4A1A9B5BDF
310
1FEF08532660C01C5D6DE22199AA774383E306DAB87E301ABB7D213887F9869D4942D0D71E94B27EDF216A318BD488D45DF84529EF575AF3C3938C0AAA0215B01994153E2054A0B894DA5C784980633AAD48576957CF4AEAEAFADC7C587368551C73DBE1E57C58AC713303A8BFC258BD04B51724459FF9E24C03A81E0E0679
310
CEB9B348C0DC998FEB9C6D6EFA77D247CC8F92D3848599ED89A23218D0636465AD1CEEB7DC140D7426F83491C4E8E8281C2FB35240918FFECE880CA2A42D70E8B20B34DF5221C7DB0CF90ECCB9C745B37A47E9B716FF7A97B7A252C1F3814DC7B1E1A7F72B8751D524EF7CAE45B0C73B3BE7D08ED39781B380DDFC9AA4A474
310
9C9493DB5BAD07A6EA6C092FBD0E85DB004DF06B8C9D3089C5320187E4CE1846158C7EA7DDAE8AD9AFFF21AA3A1026BB06A259845E8232DEE62811A4DA9CEAB3A4887320B76E2AE5615EAB7BDF738CBDD01F1E64064BC13D9EC53576751CA8CACD58B3CEB0E6CA585BD089B2A59B9FC101403387AADBDBE70586B93D64BF3A
310
D4453EF9C3B6A93817E8346991798601344F79A83C51F3D50F7BF2683A3605F51A72449489E0EE6169C749C60B1035651103AEE24D24E51A759C840DD3FC6504DA6FE107510E447B43461C79D22970B75DE5E1BD3007D1AFC619A4A4A69B5626AF5E9B8374E20677F77E2F8E73DF868E8BEC7EBA7B6A75EEF7205E1AB9486C
310
B642741D6E03FF13FCCEDB1C4AC129886268B01CDF4B124AF797CF784F3C6DEC97A17D4B558070A0F1C04DA4FF9BDBF34159AEFE958479824B3F58EBD1E19088A2AFDE501B6F2052368A3FD0E650A179EFAB1561E1D27527077136E652676C3670F42DCB3352F48F6BC86D2C3B0051727E41A0A4DC6CE2BE9D47F5CAA2935A
310
3C0539AF080665997194ABECD723B08129CC5B6B21D2E7D54CD4D12610E7E9FB8306771A89576C7A982002775ED44F3F744CF21EEBB27A631671D921938AAEE3EB0D19CD1E083727F607823E817BF599DCED5394E37EEBC2E88782E638920CA641EF74D4CDFCDEF06F4278ECB18E31E7E9876F2D783C8BF429C75395F57E98
310
C2B495A3DA077EB3AC3C158608B6B57FE3EA48484D9A480096FCEE0DE880950E7E5A5714131C5C41AAA29FD19AE81AC145FA1B9E85C7169A5AB837B213493DF7E9AA4B5FBF9CDEB36EBD21EF1181B7CF7366AB2A951D01E37AF4EB835D1BE8C117CFBE7625D2EBCDB0B20C5A4B45CED0BCDE3EE8DA9DA78C2E21DEAAFFD119
310
7E463C33CC6A80FB785669B856EFF7A8CCCA2841B5A5369173320B1170C368B2748D81062EA0296E5E2D95D7667A4A46D98A6FF475C76AAB0A8C8D45E226FAFC9FE0133EA9F60111F99CA81ACE03A1D14C89E8B0D69079C91464FA1D99E651D0EAF606F345C42A8A1AA9BA391031582B96D5B4176A77AADB01F12FD298A75D
310
EEBB2C82F0B8650E880722F8DDD90C56A7A058E5FDEF1AC93545BA27367C76F5D8F9690CB6F8DAE141EDD7971F0FB548A2AE435F224D6E5954CA155512F7332029D5A1230854B79F258EC5FFDB09F5F6343A8EB193229B7F7E79B3E48F8E183860B38C8269D1B53738FF1E0BACF6AADA6D4869E9DE708E79B5DADCC09B1BC7
310
6F649731CFAF59A83FD8BAE4C749D66FA87A3810D4D62FFE826FA400C0F325D2BC0F3CA35F5847B82A2ACC7961745C823E4D863D54460AF792CE6F79B5C7A33B25C3AEA6CDE15A919B6367D781E9D44F61BF828672594A3E1D9EDD6DF179A81F27EAC05B936575D73E05C209DDD2115CFB705DF9BBF3C911589B3640735E9E
310
618FC9C36A7326C82B2205E244C55D56FDB9D5DC93CE958D4BF8174D2B3DA54CB3C09F2C2A6DFF73D23B2197355761AD421EC581284A7EF8DE2CE3497C0C804D49B41DFD6A7360844E5BEFFB495CFCDB97A4595911CDBA623274CE852B5E278AF0BEB1770E9D37CD977B2766A7DED0E94B840E1E95E8C77DE5CB6354AF7871
310
427C28ADBEEF7BA0A28E19DE9ACD75F379FE373EAE6DDDAE3834692F9C2B03B4FCA8FCA9ABE8EEEBEBB725B88A7C90941E850682CA04061A7DF0CE82ED49BFAFFD42C309818FAE14755CAAE78B0F73243ECCCAD7DF58FCB9CDFAE7A4D3E6671A613639130D056C8383C8F4FCF4808C331E544DD26E4755D09EA05253B3049A
310
1E32587CC25D72E073E2CD96D04A71BBCB0038FEC3F53D254199C3CDC67CD66640269431860225392B2CB3ECD0B4498AAE78BA1994246AE1EE78F2EDFB79F6C6CB6B5E279C4D373FBC21CB2698C9ACBBEB6A4BB6B39E16AB0E421CCBFC7654D81ED86022F9BB522146F9F4772E2D0E4FA70120C95A85A417BF5078B232F475
310
4363EB1750B2AC2148EB46B1EA72AD9B4D23ADCBC589D70106C3EC2ABEEED84DFE28E718C6C83502C28E9FDD3B09DA0A6F6F7B72B706A31C9E2A331EE70DA56A083D2177BFD63C55B11D8D949FAFCF90B23A1E24B9B5018B9A17E99F2890EC302F330FE7936E2C23F0D237EC8916F5166AB84B62A21BB0B950146962D754F9
310
2CC2C8877BED8FC7B7B25726DD19545392570B3A2C66B58F027BEF412E552D12A588C4A3CC5C3193FCB3485EFFF700D0B9EEC077754A33DC1FB9E25AF814628F91DDFECB667D3F7690803F38D13F8AE39353523BB08FC6760144AFA2CE28236F65EDBB3D5F59A57D612B99E3D7E5F8A851666BF9B5A6658EFC96EEB37A378A
310
BB0EB3FDDF1303AF32C41BD1C8560745D7BD81066B0D6313359CF488563D3BA3F8E2185D1FAA3EBA1397C9D0E3DD232180A4DCADB6AF25DB3AC3CC26589C8239E66E81547BC7E2F328F9884764CA37EB5DBE390DFC03A5246B456A7C3684C4377D0EEF9A350680FA9A077E8B2957B489E09AB1AD41316944C2254B5984830F
310
691C93CAA767EECF976FA5647538830B5E63236A6F0365C1E0F3E327F24FE35EDDBD7360B0F7374837409F7A6311BECC12B7026D4FA1AE204FA3F5FE904B1F420C7A9044AE58E403E7C4848E7DA25DC9EDAC79DD756FAA26B9EA83ACE8A214A2612A22AFA19DAE7DBAC5F8CDE1292A485F98DAC731A29FE01A3966E96BCB9F
310
B5A4C8830E1B9AF0C54B87FBE221A097036E5D28D1F869F810C06A9BB0AC0612F69AEBAF893C6E7AD59460208BAB3A6B09CA4F6BDDAB8CF0D1F84B72487498395A70DCD754796E271099A567A55CF242BBED64696378BB6CF25EF0FCDB589F3A82F1116D010A9AB9FA4358809EE0C973A2B4229BAA876A70B03AB49CBA7FBE
310
71DB1832FFD32F9BF2C8E98075CACAFB36921235D0F552B6A67E94E094097A5D7DF681B40623DA535ADA7A9AD8E9A62407D7C9A5AE51D62A17A83A23728DE86BB56115804D3F2675F2C6B87541A0FC497BF0CA86420F558C9859EBE9FAD62747E323E3AADC03FDCDDFE7407B09DA90B44E3185723C5381EAEF589765E2F7A0
310
99BA46695BAD60CEF3491B8A171F5F56444F7CE9455312C3498C74173AEA0214EC029833B34B650CBB5A5508D5091665309642791708ECF27CF11DB3D797D6CFE474453BD4BFADB768094B2147814D81C7CBAF8228DCAF5564B5891F5EF6A860EB2E323CB82AB868D8EA048880D63B0DE5341F1B3D53297B928A11E15F25E5
310
148990F710747C3509ED14909C552EBE3973246FCE55D00564D8310BC3EBC5085D08D806799B77D6C57FDF5E55837F9E934F09C03C729271B64F12D0A9F9E938107CAF7BF1EC8CF1BB9B42363D33070F4CACB425E605DDB0A34A12BB936DE286B9887A4E2E558F0886498BFF49C311D96C277CF6A9FC0D75AD0ECC5226D7E0
310
E3572012E56D7FDE4410CEC7A6D0F997F225A2055B8B92E3956E875AE4993CB3D4C9063AF98FD45E1BAB165640A43439A2C9181A7C355B297C0A0CCFFAE19B6FA3C2BA238A885FBC98B8F6DAF4B94B97304878DF4D8BFF6A4AEDF79E90ED4E68F00CD7299F4E0D83E35601AF0CBEF18C1E870E74758FA91F5131075004DB3C
310
FCF09AE1DABC11957FD9808C92E8A678CE9DBE40DDA0E0D1D505AAFBCBA208232BFB6FB3704E8985E61ADE53DE74152F5C7DE74B1DEDCD37DC3E8FB30D7EBA8B9EFFC3606BF90B8D438279CB7709FC7C00D327F41817EEA71CD9E49FE9C8C9A81C70915D9F0F15958EC5AA4C3BBFAF46986B90F188BDB24B89DE3C6F29EC3E
310
6F66D84856EE96A35E657CA41B41EFD8DBFA16AD6E91439EA92B40B21C053249F51AE50EB0B24C770FFAF40DF12C8436366819C48E36547D4E7B72FE2BBF10828583057814A668BDF183F6B2E58DFB151103E56303E63D00F39C27C4661605DB644D19175D02E3F0241E8FC3458D17AAAADB117CE9EEA690D0DB01E634878C
310
04C2C9310B69FCAB831151E3AD293BEF6E46B0ABCECB50F5939B39C613D41E81FAE8D34CAE3C4566B761D37185FE864AC32FCB71AEF39DAA5BAB88609BB980CD2F07A8F941653B529567726E2B2A58D079DD57E1E5E31426CF184A04D7B03B985F276D47406AF276FE32E3328BA866EB1FD39BEF57863A317634AA5FE46740
310
9B3873F5069EF0D71AF00AD189D17BA1974ECDB2D623E9E14086386A6AAB5807825C37B015BFE892AFD154920EC437EB945D958E18622E1E0FE2FA06557CE4BB9BBD05A2D40E774DA2B65473791E314B7D6C886820B2FCFE4AA272B3B8B15E7344A145E8AF919B5454D89D36D413E87211186BF6F645E5EC94DCCE8E1C7990
310
22E4EC9BC86D7A0F2AFB1FC4B2CE48F84B3F49ECE65BAD24CADCC07EFF39AB06BE9E6B27A059938EA7208838455383DDBCFCD967DDE4650EF92A14FF933C975DB20BD7FEEBC4487576485963D757D16340D9599FEB362F775F38CA4185A86F74B629C81B133644A3B18FD056E997E0734F9BE26D11C0AAFC669E2AC9FC41D2
310
81F8B2E1C35AE27BCE05F3DA295488096688719D974DF1B5D182DB7792288697F8763CFB43562C1CDEE11C4AABD5C22B6E33F6F389CFC3477C5919DC0D533F8A7A1846B7ADB60ABDC26C43D0CFC8910B7C15EE22675BD02702ED39DB77A87A192CA7A543E6205B979B9F5A6B512A3CA799E198B2D5797C0AF8D1D872CA455D
310
4D431A7879D4DD76110B5FF7F4176B54477A9EB5E4A5D11214FDA585F0382751D8E2582BA5D2075053298FEB8F1537304E32CB22C2E2B693DC0A760B1DFCA751BDC445AFDCBB12820ED85F6D5298933C7EF1211E9E057684056CDA3FEF3BB6052355E162DF27C59E965A8DDB7F9437EB72CDDA3A090DE65A5B2F50326247B7
310
EC67B73ACC7047FC9B353D6EE990F772207C6EC52B39DC2F3C0754821DAB559F7C1809C7D0DD5B0499D0442E0A6E391B3D5DB46D11E731E6794EC77523FBDAA242ED67F9FA1FB684255671F63C9BCFE6E7E896D51001A6113EF2298BA494E0B0980D1FA5B9D60796554C02256B1E0345FB7C6186B6A19D2DCA270416262845
310
FA4F42DB5D9B0A0B6F07FCA2E56C242522E001E0CEB734AF310FC8BFB57E38E03AACE93B3326A2197891E68452B26A6307FDABFEE0223D3C03C3C73D2D5BC054C8311F12004CAE488E5C29287F8156A2CAA4AD0D7BE6B97264E4139F437CE73ADF52E5134C52B819777C18B323A5924E4F67AFD13B1CDC3A61793A79FAF5C0
310
CEB718E441071E797C6DCCB9EFCF7E4A1E9F3DF3C2F9C9E8294E9586868788C972857FB0556D7A26941A7EEB9B580AD78EC40B85DC906B4120A563CA3B87797ED612D3B035962BB75F6515A393F4CB057F564CDF54F2E5A024514E6A1F901DB80C7E70B1FC05E356A7E72FABF4775B3E3FB8F70A2A8E7B6A94542BB3041579
310
78CCC999E707A29CC795E67A59CC546A5D47B368954CA7B6E75EC9E1F6FC73CE3B4F71F8CB1A6B15923D61EAAEB14626AAA9D04A26EB9C66CD1BE86CA31A5D8703DE04CD1EBCE4F5CCB62F93909AD11E55799A781A956ED27D3E738F4538CB04ADABC7DAEF20BC35BA6A90BCC1DC61BA05F20D8832FFB9BC9B15E2DB838A0A
310
FBB7E0C82A562127E0446894F427794C3037186F622BF24DE1B00AA10A23BFA47B2A180D6DA5AD6F7326FEB8C100C2D7142EB2A0B2A9D1008A09BA343D70E054AB69E2A7EDB783CBD92537FAF4A44D1296AC2792729104B3276C276C951D0CF3CF3F1E6B017720A7B8505A5FF9589365979678C36F1BAF759EAF57C60F1FF5
310
FE9DCF5F8E764FF25A2D06CF25117A8FED51884C13B2B750DB0E4F5E3D64124FCF11F0AD8F1CC3B3DA4B38ED22BF1CB2585EE6BFEBBA63FBFD44F9537B9B37BDD6B358720F98A8125AED4349CCFEB0E135F19E208A04CA7E2B10711185D72E381F448036EF57C9F874E54A971CA37A639E986AC0226DC5AA00D5B14FEA9192
310
234B3DE617814FC221C92F33F1D392F297731B567FD98FD91D989379AF567A65B8ADF177591DB90FBEA99BF4ED11B16E50A0AB1DBF1156D034BBE04D69D08F939D8E92BF525A1DDAFF80ECBC95D8F45D3FDD289FD23F7D8B452F8EBB34EC082DEEE68E18EDDF072060FAD2AB1504DD4879BF67099FC58F6E9DEFBF645D1633
310
4A3E9A127C6F1AF6132CF287E433B43A0EE93812B4AA0B194E03EE3FF91EF9C6ED0074A2F6EB18A96A7C9890B1FCDA1F2095E944DB911ED54C60DF16FB74C8CE9BDC7C54C4F14078CF73C2FFF1F1BBCCD7CF64F71407EA1683DBC410D226627F66E509060D5C0AFD611DE681D509DB8DD12FB1265B03C6F5C55FF4C30BD941
310
87FF692B4F152982502F193098A789526A038AB529A52BC0DC4FB6285CBAC10A8B8DB75DCD9BDABBB221E27D1F8DA9F5EE5926A1C8AA9BA9BC09239C6A7F12914EA3B59EFF7AAEC3FFCCE56F1C5C2980AD072793527565E774F4631DB178CEEC691B1F367BEA0CF2907E1D6B854D527065979DDEF002D8B2ACEA7CE21AE297
310
737EDE1D45B31233B73FEA35BCFDD0B09721FDBAF6432681F2FD10C3E9EFB246FD6E854B344ACC9D8A0EEF876A7314B49B6A499FC650B099D650DBFEC7638ADFD245E2B7839DA5AC5F7D5623FC0ECEEC8653FC9B2BDD1AD4D00A566FBA7186DD3C9CD26512551637498CADB950FEC71ADB9A5524285DE328B8EC7EC75D2345
310
AEC6A27C42AF6D9B92155315C80DBFCABBB7DA0FAE425C4FB896B15C9BFAC4FE67DF5A23D30C93DA4D8F36FB15D100050DA6062E22AEC5F4DAC4F6FEEF97AE05DE63C6D38F9E068A20BC5E3B6BCD75320C5090924E7F93640A7735B1A43451C2D91EE62C6238B797349E59890AF3A520DF4A87095F3ABEC2E61F0593416CE4
310
6CDCBE0E00E2523FCCD04408588B5B6C9DB6459C786CE378770B54F51DA3A5E1DF2A3349BEAAC234A6CF8993B598B3B25B4B113E353A4D750FA7534749430F3EBF2512E7EA3FD43C6AB9A1F765A58463B306721A15D224FAFE8C6F5E3432D57EE697DA0DD5A9D4866A8BCCAAA9DFF1F06047851408FEC060471D0E3EB86BFA
310
F46E4B5E60311DC3E3CEA147C75CF971BE74689507154FF2D2E92F15CDB2B9182B11459FD8ACAC5A85F174BC94A7F4EE4C4F5CAFA7C02E37BF0BC77B7DCD0C047BC316F562A01A441AFA7931CC84A28CB9F4AA367EB515778F29BFE61195FA671F4352E5E46E3A64773F1F76EE5EB36D7BCE9BCEAD837A4D77F8DB8C92AEEF
310
6711920D7C7D0F76B0FD0EB7AB83724CD35BCA7D36DDDF5FBB7FF6F04A91F3E2BB3B8F1A43CD659639507FF6331C5F697BCC782AE57D757A27D97F1AB9E0AEDB43F92F1B2AACDF5FEC8ADBAF9F814E2027003BA2F9E144B1938A7A04050AE5D953B82C45619165C813A10E76DD6906B3C16438064D14CDA713AEC420034613
310
E1AC7241904A49FBF87409AFB1FCB9B72FE7933A87D8FBEDACECE4EDCF6A4FE9FB94D5DEB74FAB7CFEAE17EE965DF980DCCA2D04134994F9A2E94D2265DA4FE6AA7B7AC15FACAC2B5ABBCD7DFF542C5314FDAB2E1B9D8B65220B8E2B638BE008E8DCA22678C820C5053664D15E89F2D735B51A84955E81A443545E9FF787BE
310
0FA700A76D136C27DA179A7C6E8939E01BE756E19CB292798063D8B97F44E8A27BCF3A614FEB8BE974A718E86F7EC99B53CA35FA24F61F2B07266684623A3D4CF073E511F3A10A8FDAFAF0078C577F4DF9D339FE7862E5FA47CF4344209E5BF76D783B1B48E152AD281B15FCB934DCDA49CEC5706B1EE8B460F435324A5CAD
310
154725E21AB8044B75A557A79F6C807B9340AA3D92503E866F4274412926C8C504E4D5EF8C0E68DD0B028781A6B4054F11CF18941F101C57CCC796773ABC8DED9CD91FE5788806C05E548895354AEAC96546D55B0E94A59F148D061F42AA398D822CDECA4CDE79E13469BDCC44FDC990F366BA5978C15F97ED80CBFD73B0CD
310
9B8B83A4F6845BDFBFAF034019473FB9A63BD55D3A4A7284757071574029A4D016DCCBE95DD679EF3C4880BF169422F8C89B68A988D2B13793CAED4F74DE7486C72DC94DF46B8E93D8E02EFCB1FF9B3BA10C8AE7F653DF94F4AF466CDDCEF5776687F7C4C14B63E4EED1719DC2EC482D7DBCC7AE518CDE3D5FF86D39000EC3
310
673C0044E1D308BF05F74D1B5F033A7D1BE7F74BC55BBE3E4A20F920946CA0271EB17BD2B80E5660ACB8A29A79F5E4BBA49D4D945B6EEF4A7EFEAA65E5555BBB57A7E15D2F83C69F30BBB978D2B39F1F26FC097424D39BB33CA3D87ABF64E307938B685BAD44F71556A30B7E712CA4FE600613C3E554B69ADE949A7CFE214D
310
F1FFF05CB82151EC6FC31950239F94CF7AD39DC473F6EA356E5EC2C4EFA04383CEFE985A127484366FBEE3C0EC4FEA363E4F6632AE781392FD45D67B63FB8DF70E82734F431FD3443172A0E30A83D60982D55FA6A2CF86DBA8382502ACC6CDEF3B907982EED1160E14863FA242F9757347E1544275CCDCF71ECD5F8621CBEA
310
326B8BA884AD7F825781923E66971F04010D574C541D8427A438A37EEF8AF88240EED7362C953F5A81DE2D56109CDE2524EA0F5D2F87308C0C47BD97AD605878AB8589E17CA83930CB5E0DCCD75853D68B1AB136594926DE426C367428E9334AFAFF90ECE221BB5DC9E5BB53D2CDEF954EAA9CD814F0E5725F1965DD458E5F
310
8487683AD86B9D0076BE3EE91EB1CECC5331A67A3F79D8B27587C12EC2A6A70474749F27B4C0BBAFB94B34189E88DC18964BE4121B9137FD516C7755356E50D6714E31ACD222621EBBCD1CFF81D87479056A9DA0E0B8EA19D24CF937DA89F78E8650CCBDC110AAB6C4E46DCBFD0446BA9E2060E81F314AC2031E88135E5476
310
AC0160EF5C0DD2EEF1B8B5CB2D198BE9A554A9093B5F7D7E4B5407DDFCA1D9C152FD97F55BFFFDFE802954DFEC8995B983E28AC92F1971E28F531DC407A1280EB125F64A72E617EFB27DFBCEDCDA2D6F2BDADA36873EE46B9BE1782998C63DA7182BC383FB6FD15DA472B175D7E8B4FC88F38D6E07FEAA3FA3CBB8F6B449EC
310
F14D2175E5C5CCA3A42ABF24CA6C9395AF74535F4DDB38CB84F56614B0FD32D7E19CA5CF988DB4449C40E23DF2B16772594554579094450F56F253CD25EA7F77366FB1CFE79696C428BB64D5A41E986189427E5E4D7E2DAE3D5BB4972B3DC44EAABDDDD63A2264ECFA5C786EB0EE1FDC5BE34FA0F08376869FD1E61EA06CAE
310
15191135445EE8F0394161C3266A596AA035572BB0C8876180D8B9C77D307DF9DCDF7365ABDA6F3A2366436457A4DFC1F259666569A9E4A79C817BDD5610E5200FCE894A358EC72858D50EF67545DA81C6FACE3D457BAF70367E1E6BDD9A952FB4F56247F58F523B97E640246051A72F79BE42FFA0B3187F63097F91C48B86
310
8586F714B0EBD5A00A8412C1236E1298F60C72BE6C96B82B404CADAA304AE9F303176B14BA53FBC2D5E86377E35542019E24D97B96A49B2C0E5006E7795954DEAF5DA58958839043C6C70BD3B1B33B6DC5C31316D8A6923F142E26F6711A2258AF977DDF1F970ECC4F1F2B434B96D81BEB6E89BF3BBB3C7C8CC80505070723
310
D6D7D7D3C8CA27CA164A26024FED94B12A86031867241DA53D929636DA600F050BC40CE48B8BA03D69224720DEE2ED2127390BDF5E6EA64527BBD4C4C63FA76BB801FEEC0E61218EC98A8A86CD8313781617877E66692839B9468CF4DB8E50A73986E558E309C0D6F676F921BE02F1185454DC75B111572FF9D27D85EA14C0
310
5AD7271225B391C4275659CA4A43759D0BA44639BE4C30A84DB7F67A41399FB95CBF923B1B1672ABC807C1590557FB18D811983FA97F5E609516D62281D38B1281F68FC75528C35E4CD7DF0F7DBB5E5DD69C414EBEA2F4A5B241B996BA77AE6C772E367408C633EA3E438B68563EA8BE7667F3A4C4FDEEA52ABD78A2820F44
310
3B7914A15F180018D231E64519C56A12F6CA7C8DAE18F06F6B769DBF92329EF6A5D18FBCE600F36BD8E8198DE5CDAA96181F3A756EBA5501CEE58F497EA4F418A2B82565B9BCC611713C0B708CCA1F398B78C5F7D03B3437CC18F13061F55C7BEDADD5ACB1DB0E36D3CE47FF6EA1A563A57E9649EA5D14D1A50EAA45746338
310
1C073777EF1600607BAF6428A7DDC079D47A204EF1E1F1F0589FB054D45E02CE623B3823C317C601E589E22B1E88B448524B86A82828E32345EC18AE17214B42F8C41C6D428016D9BA31DDCB47572561E5A402E5BA4FCE55F78AF7268524AA04130F3A20BA5D1E9F9948EA48FC8F5314FDB35E21898198060034ACE5E3E2BB
310
CA34092518F275190AF65F45867FF0900AA4B81F25427414C372BF51DC29AA855C5428EE1EEDD6B849AD60F6E73475C2D2523F8A2772C840A478DED18A8C5C91B085F255DC4F54EA7AA8947354FD17ECF8FB3B4A0DE7B483CAF3A1165EE05BBA413E5C1FEF3DE1D6B8F2F3F3251C17D9FCAB48A9AAF63AC773A0E413BBC46A
310
9ADF84A566FC920E4D8C52C9769EE3301CADEEEDD92B312E02E2A7E35B7F1E7D203FE5A7D75578B06E99D0E46FFADB8FDA17ED8880390DA29094202D6F645F76F6F96409CDA05495A96E84B04A00D1A6C6C81D7F3DE9376E828CCF144EE50E364ACCE7237EA0BFB5607ED1AC3CFE73794E5B61739D14DF1743441B1AC98F00
310
ECEDE9E7301FA29755FBEFA68C91EF2B314CF510537EF1ABFC9A762496280B546F5EDAAF8A5B387D469FC9A878A92828C88608453ACEC6094DCA54111E7AD5B2663DFE2DD151B7F123B9F4FEF8EE36AB125FD7AD52A59B1B765B3E3F73E3F73DEA93875004D2AFFE3CDE9493B87A9904DD052028949041A91DC0E1BA47BA71
310
4343FD5B25E0A6A09503AFC17C790058A836A324FE31D7893512E28230332F153181C1E018E1124EBE1BA262AA428A518237D1EA7275E48C5C561BD19ED6912EDD8367DA0F31E40EEAE9683DA9257525AEA7B632B97119E17145A90231768A4F3B9120FF32E8319B015E3CBE26F1A754177D8185345817C096B0CE443A955D
310
13AC15E1FB5DEEA0239EC32A3C92241A237B0B02FFCB4F93CF2B02570C8D192E2F2A68CEEB42F12E6F8CEEFF46C251E22B4341C56FB08CCE550E7A9D6F4D6564B9EA52A83D5BF2C6E03FA19D2775E15A8A7ACF30A13C259EE7F5EF2AC3BA354F1500E1A07FC63FB4686E2F12EC69719F9ECF5FE3F35598DF2CE944008CE78F
310
0911BA5BE5D0A34E0098FF038669C26030BA9B300303039852A8F6F496341737CA7E0D2E3AAA36DE0A70AA7D9CA0D54D9AD84B18A44C9E625475E1C97B93BEBB38DCE7D227E67A2D00F531436136355F243D1FC0D712C5765754FA22FCFFAE97919161F46D6E61ACB37D83777B385889770B50765B127768443A5C4D3A4E35
310
A3151111F146B7CA116F918A049F1C272F2CD7976C69A0068773451659A97E0F4A08FE604C3FF6CE7385DB19F4D3ABC8A0D80DA8A42096AC377DB49382B36E270B6FA7570188B4B7D1DDDDA82ACA487CCA5D38BD3BD039ADBAFA4ACFF27809239B722081E2EB9F145320553D183F28471C388BC8814E5045676767AB58A8E7
310
2D1CED2CA731379515D2E533E4CF0B39DFC625F97AC4836831A4DE330E87A8126FA17EBE583D614E71E22A8DBF2825599743E0640037303E8E1B1E8EA4E1ABFA4F62907B5E4E0E5DCFDAB417C36C6848A2B8D15F1E505434C0707E16B1CFC2A1C36A42BBF55734F8F4301DDC2A5110CEE8C0747F69519265012A2174BF4E95
310
5ECD4FDE095A3ABC70536B7AD0B9D7892F81287D667C108703C9B66A221E9A0929D030008F77FF6F5D2108EF5706FC87A3069B976F7C9FC3239D13D283CDEA83597461079FEEE049B0F392889898B7D87D31F8D60ED7B56B91823A8E4EDDB36C6172ECEE42BD42B12CD67994FA0F0DFAE9389356F4CD4425A4B8AA55CBF7EC
310
D585C6A2C2316791E43D5C06841ADBB226A87FD61515FFBB0167B74E56BD7F3E90A57A97FEDCBDF483A0D6699A8C0849CAEB4947FAA90D8E332D9DEBD9F4738C37DA0CAF9CF3DAA68BCB67C420459C7A64498D6E848E5CADE92BB6901F607AA331104A67F7CD650EE169B1DAE94D2C31C2F993632259B6957E246EFE4C5481
310
107B07118607700040E5812A2A2A38DA0076875258C753F60E0F2662C748EDD5F3F3686B8FC3BD6FE631ECCAA1E8B1C1E565AD117E54893E79F4672E32F9E46B2A183DFDCF3EECB4D4D077DBEA0DA254D256045109670050129E9B9B1A9E4A11344D61497A992778095151510C4BB7EF2009B63AA4360635312E4CF668B7E0
310
D3D85A8688E2BD83B569439892ADB63461930D428E0DE42E4AC57CE48DA5CC1449530D8BD3D6A0F08DF20C8E8F570F2CFFFCEA286E30969B4654D498A58D9DA782E19FE3F002181838925592C4A1EF0B332D88B61A92C644547BED490D3A42CFFAB70E36D961F694F6307F72FF15A1C79D5B1B5CEFD353D9E2B52566DEC8F8
310
F09CB3E8359C0F68EBBB7898243E34E12A015B2685AB303C04D3A9E00671FF3DFF0A184E4A2ABEB2B666AF5B3A209C73D8EF29DCDB069C9F391EEE9DD0F74C7BCDE16F8F02E3B8816122BBEB50665775B600549D8BB33A54A6BF940C028118BC6878C79958D6784F9DEAA6E26748386FFAF8D0D0101E2847B6563F5D8DC1D7
310
8F787BE00E2C941AE12148D4A81599FE8F68D4DA5CDED75530ADE138240300EE13B0FC13A1687FED6774662C05A2B7DFB186732F0D7A93545D8B0A6390AE5054D9CB582DA846D7A061B3358B45E2B52DDE63E114397EDB7E09233A579155D795BE76102CF277F4DF8B188C4F2879BEAE3C08347124BF9ED23B128259FE107D
310
31E34A652F090B30B39E0D9AF917B76A2806135621A8A60681F16AF216514BBD02711585B5B1AE823F4B2D0369EA5B6BCB863072727FFC871CA6C9AB79A814D989057E9470A3D238BC87CBB4A0EA49AFE2B86F22E499793CAA9047080450166BDC357524561E258C77CB697F1ABB32562CF87C3B7AA12F911EF19FB3E5C022
310
22E887D08202A60A17151F5E053A86B437771088B4FEE14D652C43E8D939995D34545E12E2FF93D4E366EAD25F10CB7DED141563C3D0C447AF06078A91135FD4B9611583CB4BF3BD167F2399CEAB0E0100F8FFC305F00F1711717173138B4B48C83022295DE657EFEDD97F238ECA80F528AFB4F8D67AD4E2594B9A3AA86D74
310
87EFC313BA95745C186F0CDD84CC12DC9CB0424B42203D351FD9C0A3AF10CC7F388E0329279087386421F194F4A29464C1DEF7EF8BE515E4A199DCD5B909342598D8FE6A231F71336248D5CEC5454455C7BE383B3BC7B260FED27F703FDC39A170F3827239102F59D4DEE7FEF82EAA1A5E4BA94DCC4CC44E7E2EDE20F24244
310
E4454369D2E87C3F823F193FD4FD27E1C23984B01898D15ABC20711A8A558054951A6AE280096BA36CBA439603B7B0B4C45F248C14B2383B4B5CD8ECECE4FF859AD4A6CA2326D020EF090F4041D28DB66E5256B56232CC52829DE8060BAE6BBF37D4B7469B822454FE93210A3E8D15E69FFCF01123222611C51C4FD0A041A0
310
CFA2471CF6BE38D2B20FA4C3525B5B8B586759475CF80ADFE67A284AC24651E52B8E683D24C2622642F27E7C3C22783BCF63648BC398BD6CD0D9C97E7E7E3EACB6126DB7A6C1FD9F1031302EE67ED96F22B77C7CA0239BB324207559B105E4693EB26EC46182A92C9C0DBD24F29B31C5C5AC1F84300E0E17CEEAC15F5736FA
310
4A98971E2F1423BFCD68D4BBD5F86E74B40A369F39507C88FCDB35D2DD8DEBEA4AF999E23CF2816D204200DF6E611781B9884C1AC8888B4DE397320472959434323A5A36B22A8E1F721A270DF3BD65E4A31C11FF048AFB0D8B7B6881423793963A23CFCE935FC189ED36FAE35C46DA3574C979E4394BE52084F3081837BE03
310
3396D2EBD80F1F691B273F660D2B32FA27A33B1DE4ADA5F0FA4651511102DFA410DDA86E065272CA314D5249DF91B06BB92807B28EFD54F08F7B525252782CD276DD02E6B0319B13DF87B1F6361AD6B28FC0D711CF445429B9E5A433CD493051C49A9E03DDB1B147D880253514A5DED88009018620EE229101C041950E2D8A
310
A8E1F5F5438E0C0C0C60EEDEE9E3E0C051948C69F84BB7B2A48A1F3C8EB9E6864687F4F4F6F6E2FA87608ADAF9C5E117B7C1A737E710769DA1D15ECE6A84502AA855398712D5FB51BE92E4EF824969CE18278798AC303C2C7980DD2500ADF8FB1E6D6C2FAAFF9987178923334A244758BAA01A9A1B70FA5097D01E1CC2A58D
310
AD0EC94CE6430AA9B0C10D75E3C6BAC670EFBADEE1607739CE0FC18A2587E3EC3058562014C64219C69BC269082D5C2F4A659278D585755912176D78A1B641719C2A394CED495A1AC5D583FD2F5EDD93308EA7EAE8A6DD396598BDBD3D4CFED62D18A5BDFDE0DD5C80D1A89BA62697B131AE7CE9A6594138582F1B37D68F17
310
49AC7CB67A70695D48A4A056AC1FBD4E82358CEAE38F54B95A9016F9000F9879C0D9D131768635CA798895F27D6F1614F11F2838A83611AA51C9A3DDB539D42979C29F10465655C17BEC3E2760B80DCBF609198C7B171A531905F3EC218D696025975E986C6B4C666666787271F202805577DD5A3EF0CAFAF91B62DC4B2DB4
310
217A7606282F31D8DDBC290593BAA93EA6353AFA9939B877978481E15CFC9F2755CDC00C538F63A4BA3E80AE009B73CA0185687D339A507D165B74290D6EE46D5C58148F020C3668ABE9EF2F7549170DC80DB41FFC1D678FF19AEB10C7133832B104B80F691B3138F97A92D26E551F1F110400D45AC71A9B9AC41A1A1B1DAE
310
ED0B0810638EFFB511D46B121C6FEA0F38CD00E03CFFEB9713FE1F9C263E4DDEC160D0497FA9A132BA608584057FB15380825DE6C7FC3C667EE947D488A09898D8E939C4953BF4EC9836344D2CC6B2971B2A21A572B06096F4982D2CC7232D46E8EA69DC83722E267754D777F97F96D5DA74E1E75178084D0E70F12AD33E5F
310
71EF2AFA599B2BEBF60A5BE475F444F240CBFE8143C334E7ED9150FEEFEF7EB020C4DBED388DD1D6A167A76F3CBF119B578AE8CFA7736ACAFA4440A1C47185638A0D2F3EB5BDDEFDA958FB13CE4AA4923D5BF840392D45544329525749734866684BF7F8D9D54D892E19BCA9F829A0F8BFCBEEA6CFDFC61D74EA1A645ED7A1
310
FF241739F15694BD835B66FEC5677E40FE69BD3F91AE402F036537218A401CB0828604AD189E575015C6F3F6BBC8AC79CF6C70653847254B31551EFCBEB5978B9DB85D58D0FA41A9DFE9C624834AA04949D24B5AE6D299E072D152D12097920F14AA92C31C3B97E28B6C2E6E9C23D63043ECBBC0A60FDF5BD0C33C127EA8A3
310
308B8B6AFFEB28B4455BF6E7AF4FC6222728357EB8E46E85053E6A8843AB23295BF838ABDA94658FEF3F832F147046B4ACD6F7D48E8FCC9618582961C898D1C7A253C91BFECBDA6BA18A1FCF70755DCCEE2222F41B76D23CA98D0CB3D95F0CF66D57FFF65E2A90F5DF40FC3187621E981BD0BC1D992787212688976B94A8F0
310
C6EF646624B570B78E068826F87CE27041A95C9A4871FF65CC17FCB1639629AD6A9517000D63AC231F3D741CB8430777E7ECF80CE7A3F73C0F162F7E56AA71F4DA80A33CD6ACEE78E2C11FAC03DAFCE929B106F8F6B3ED2DC71FF994BD9CEF4E9A94896EF1B6E2B7B4978168BCF0847A3D2A4F1B0500B926E634B174548E9F
310
BAD27153FB5FC36799B1E6C7C38A94E1F9E996796D7B485E635D5287A2AE76FBD11A341DB3F8F810385BB7296391973DC6C37C452A9305AEBBE0CDB6C566DB59FE60C8E94B1FD090354BF51439FFD1B48D725228FFA88C84F686F547107A7A235665A4593B7C34D748C1AC8D56DD5DA861EEFBADDECBBD65117E65851F9035
310
1AEB65F0EFCFF4BCFEF24CB7A5879699FAC437A7AF9099186CF006BB923A59E37D7A36A29FD8D2CBB914A5E9D0A8FD212FBF796AE9A67958FF1D5D8B85F78F96219D4714EB919929241B6C018AAE0C02069F8D919961EC5DDFBFB7573E3AC8E08BFB7C8534BE6DE045B3CD63DBD71F7638BA2309CAE398EA3A7D8F98BBBC7A
310
EB367EFA5CFA27A9F8F2F52FE878058E6209C026453F8E7E8A237DFC389E9590F6059B397CFD65183BBF936E86896612A5B5FEE49DAC8455D026218AFEBEC12B3523A45B57B82C9C97E02ACFA1184DB18E48CF615DBF39C3CC6F0B4AE6BBEEA2E39D944E290302FA3DE33FA7E40296E2EF7BF1CD855BBECFAD0FD622BEE974
310
6FC4FDFDE545AE6E3BC234CADF83A0FB76DFB145BF3828AE3436368AC24989454F8FF70A177672C711CAA1A76107218CF948CA01F873520E7A2B118EBB161ABAD432932029628B6761590C98AB590C8C8C79798CE9F715BA696E839E9131A4BB68BE923F1747FBFF165331FFDD4D05997ACD168F12CA75348DAC04C7F509FE
310
83898A8B421181AF492861CE81E4A2DD0A30850CFA95E05F097FF70F9E777310D584A75BA7018922E271DAB1D785671157685B7D383D3E074DDB4F1E44EF04B07BAAC75A062077C54B9752C738C9D804D402E02851F3F89605AF189738C18C021D2139EAF72513824E10DDD3047BACC8521ED7E98B257D1166903B1B08FA6F
310
918FD7E162913FEC7D0EF4787E29C35FBA8C6E2C9C20E9AB30AE42CA2A01A090E7D010C1B5BF9CEE2A304BF3A987FB40D836979B79E18D70F257DA61E808472DD85B82761825779D6B90CAEB0F23360C6F80A7D7D77545E95B3DFF0CF96A827F9B5BCECD2C9698718417EF80FEEDEE938AFF55859D0D540B7FE09435583A6F
310
04874A0C7E8CF234DF4879722000167F5872CEC6BF3EF7E5A8CC8121E6A359227C8A29C95212F9F735BC72A887D56B8F309FC525BFB4FD767AAEC4AEFF249CFBBD2DE1AB9969A6155C7D8DABC307E47324C1F916C7BCFF40ABA5644E9FFB9238D19ADADA49D9610F01ABBA57E4DFCBDCCBB2B93C8953206C91DE01B0E2651A
310
6D6C31721915B31F7B7CBCE55466F6D70402788FA91D73BE4ADCBA99A35F17D6B83383704917D6833F0FA3CD45C926ADB8BC17999A4A0AFBCE2541F7B8CF4C2F5FBA611B3E626D64407CB32C122DFF4EF8674D6EDBB86C8F7C6A16D50FA685E2CCA34F8F7D1D8265BB0042E9D7F1F666F7BE5FAA5184DF58E12122A42EF02F
310
461B3F369AC746F96528AD208512AB56844CF75B97F352DF7995024FB02855385854F3798670D01CAC771AC3E1889EC25F61A20C1F8CAB46898817F9C47E2CDA1F286BF2F358298709FE567C91133E2638C8B53975E753EA8BFD3578B5F7186B7BF084EBA3F77BAC3132A5779902EC22AF2D2E79F42D324E083386DAEE9810
310
D1B44A5DAA54513C7A71E52A4AB9257D975B621308FE4D2141CC3DCFE946C154A3C1DFCCA7629EC69ACFA831634ADDA93C0388D2A9A2DDAFCF957C6995BCE7FBB6DC4EBAE79E63EB08E9A25F52F67076F7093CA545CA3053B5BF576DEAD4E0017143C5F759F32B2D6F145B52B67B48909B7C7FCA6586EE385A2189C16932CB
310
6DDFD9152AE317C430492A578ED27B72D85D40C7C93C097939E1B50F4D67F05334FE9DC362C30B7FF561B95259138ECFD9274C8D695C31B14D4EAA9F3D7FA8DDF652F8C5DEFA23284C799B7D94416DEE81E05A866302DC70192A5368EA65E1CED8BF107A1E2D3119A71E85DC1A7B0C1E93274CE04DD0F2ABC8AC7C987FDB00
310
2B6F81757B43502EF7A0D92E416494FAEEA4C9C090CD9557AA4D532F4996A272B94355C5A0E4974EEA9627476F30809B94D8D8D860062E02204643BEC7D0438AF800FC7E2B26955D595421E83C69E1A07E0E3122285835F014AD538188CF9737CE76D464A353FA55A001AB2526B84E985083693BC76FE211CA1D000679C889
310
E3C009832C87E1AC2EDD05C302557422DF0800E316FCAC86978A371F025A6C7DAA9F333E7BD160403A1A06EA75AA9888FF01504B0304140006080800C05D4C4B51464CB48900000043010000360000006662782F44353741464234452D323837442D344432412D393430342D3833413644443338333145372F646972656374
310
6F72792E786D6C9D8F310EC2300C45AF127987122606C71DD918B841D4B851A43646695A717C52A85029031293A5A76FBF6FACEF7DA7264E43906840EF0FA03836E242F406C6DCEE4EA06AC22492573150D1F66C60C640E8938CB705396EEDD86DE9B5042FE27813D640EA63BB001C722AF6E55CB61E4863F58284D5D3F53D
310
D715CE1C3985E63FD7F1B7EBDD617E9F1E504B0304140006080800C05D4C4B4EBF96FB44070000541C0000340000006662782F44353741464234452D323837442D344432412D393430342D3833413644443338333145372F6F626A656374732E786D6CDD59596FDB3810FE2B84F665F7419225DF85E3C2B193C228D21635BA
310
D837819669871BEA002525CEFEFA1D52A42C2A72ACF400169B00B14391C3996FEED1ECFD3162E891F08C26F195E5393D0B91384C76343E5C5945BEB727167A3F47339E24796D9F85621C912B4B2C5BF3D9812745AA9676648F0BD65CBDBDFE0B65218989854286B3ECCACAC27B1261071779B223D983B3C339760EFBA3E339
310
E54693EC81E3F4BE71558A3989736015D663A0A238F0CC7F4124773E73C506635BBFDB36FF956DAE14DC6494C6598EE3F005578DEBFC335C35AEEB7B83D58D3F9CDAC3C1A06F0F46BE675FDF5EAF6C6FDCEF2D47CBE5747133B5D07CB64D1256292025F10EB4F86CCDBD992B9E54E22B14DAF80E933826A142B36DC38E28BA
310
94644D4C0C603D295A4D21A5ACB5857E47E1CF6CEB048AC19281B6164E7FD6AD37D9FE0D20645DAC94674458799673D0B5C2BEF487DECC2D570DBDD00C4538279C628618DD72CC4141B0B554904146788B20850466528B9A5E9D5730ECCBBED4C6E5BE604CF8AF35979E16803F923C939CD17F083F715FBF0D7802690B1AE7
310
13256CFE9C0289E9CC958BE5B3BEAF1E9640A23DC307B01610536CEAFB0DBC962216AC57D6FCE3EDF6B811F1A1FDF2942729E1B9B03CE9CCCAEFB4066BA605C6D70194125753772754BE02F49F00F98A173403CD717A1C1C075A768EE36C9FF008B4837AC8EEC19F1E125F5F7C9BB9D5E1394246AC3C8729B8ED4FC2D410C3
310
B8BB06E97CF608469FF0BE126E136206367D4763E1E760288825B004F17EBF3D5AF33504535884539881F4F03B73C557041F251D88370D0DB585DF0E8AD20ED3F4B393AE3E80CD701A56AA32643C87EFF0A7E0BB586D3E6E0ABEC721B9538EBD227B1AD31C92693B4306E886CB7F5B7F921EF981255BCC4EA78D4D215C7348
310
44DC6851CB46A90549BD0027220D979A912B7714BC9D311C93A4C8D47A5B9C0A1396F060FB1C942EDC7AD79FDA06CACB9401B4C63248EE21A7A9C0C49A2B6D5581D0A9090A1686B9B2C043A9D5605B446980A3A48845A87D698A4D3E20CE084B04AA929A366CEDB59AEC8EEEF74506C1AB95E4D20052F9B3265C5AF800E258
310
1BBF9CEC3986249AC401851C0CCED27A83714105DEEB3C6784ED03CA5811057BCA208F04114ECFD0EF28413D733D90E7A784EF5A099A96A57D52DB90005C01AB41D2D9AA8CF94AA79C3C525166CA7CA6B381B143D5A1D67C70265D884CD102A8364669E68BE57875EBDF2CEDE9643CB107636F642FA693953DF27D58B8997A
310
93FE4D934F1DADEAF90E5429CA1CC3FFF2FB22DAC698327820C4C6BBF4DD7B993DAF5C088DEE6A385EDC5E0F6E6CB86A650F56FEC29E0E7A037BD25F8C56ABFEA4EFDD8C5D4EB2A4E021C95CDFED05DA24D3F8708E2BCDDDCB180A65CDE564A7F5D514E67F1C439B39C150E27F358856B1ABA520EC1A44C5D16608C5E18348
310
514108555FABFB348268938FB638F7C6B8DC73FA3DF9E37953BF37F527D3E1B063D89337FD70A46B932184CEB3C88324C521CDDB536A03998E2CBF29BB387D6F5862A3FFFA3E02BC3AAF564CBD9E991453018DF081047B2CFA8A96507A49E2D6AC77604996D19864B22F7C512F3668F61C28BFCC2CDD62B6340B2292E3EFB1
310
58D96834BC00A2390BA083CDC50CE1621D51B980EA59CE5114FD32A47A29FF7390E12865656F7C0903CFD710E8AEA8CD4205D3E28A47B0CF00E7416F47E4A8E312F58A7D5D51B46AAD497DFADDE4CFC0A32BA15F088FBEA27BB1E50CBDA9F89940181A0DBDFE685CA9E2125AFAB25CF47EAC806E357C0E9E083DDC772A4EBB
310
69A556E69585784E22687D715EF04E1E3B8268A26D4B0BA42243C3256A37BDB1A0943D9FEEFAE032D9F49D2B896BD740ED4A63988D7512E48514AD462C7521E78062DCF506CFD6D85CA4FAC311F39757D975F78BE4C0E8320E5061972158C51FA30E6FADD48D1A2A7BC27908A174233FED6BF0881DD99D9A39835C5B59AF6B
310
DA4B15F75A84D408A6BC5844DA3BF1857DC5A06AE8B833F74359E8B9E5FA5AA4360706DA273E0CA64D5A9F3F6C1A5460A5F3E92F0223F2D4A0A05697A2837E85D4B7F5694ED0A0A024FAB67EE5F87FA20BD10AAC8DDE60829C258CC2209FECD0812490BF6154D1A143E111C9645E06E355414ABF45E870FAB19CC3E678CBF4
310
E9F01EC3309BA9FEAD0861900A39F3CA52EBE837189D8AE9A51C68390FD0BAA91866A182D32B0B2C36A7D0A1395B1881C981A3A4DE18718263E3F820327E79AAFAFF744CA00351E92457B5A70B2E4A32C399A0144EE5BB05A8FBCA07F3D9F78BAED9413887AFDB22AF84392D9CA45120E89708A57030297C50F01EA1A4785D
310
2ECF917B0C483A4DF35FB58392AA9D637E9023F91ADE8BD517574CD3D79F51CA8A8350E76B1DB341C9169D3A2BCAC9D50C0C4389996251452EDFB95F7802AFA522744BC108D0EFC7C9E80F7799445112974BEE42BDDC429B7B7855B573F598105AFF9E3776E5E440BD0A08B638230EDE650FB000AAE554CC534B880D03A8A2
310
69CD00B446842EE098B17FBD42AA3AAA4D55EA6157C023DF03207024F1FE47B84D7D436D6809BE005CC987A72F7A61E672189CCFFF05504B0304140006080800C05D4C4B8D7871DAE0000000550100003C0000006662782F44353741464234452D323837442D344432412D393430342D3833413644443338333145372F7265
310
736F75726365732F322F636E782E786D6C4D90CD4A043110845F6508789CFC0CA2B264B22FE1C9CB1293DE1836490FF9117D7B933582A76EAA3E9AEA92E7AF18964FC8C563DA89A09C2C900C5A9FDC4E5ABDAE2F64392B9911EB3F8C2C4947D8C99089922E633BA664E1AA5B186AF0E936457E7190207B733992238B09BA94
310
9D14F3015153DD2A5A28376A75D554D00C055B36D04F541F619E301974054BD4C6C5F32AF82AB657214E8F4F272EDE241BA492EF8861F23E55C8783C6CDC605F534FC4251B80922DFB498D37BAF1178FF67892755BC95273EF6062F5FBE8988FDA01BB23BFAE926C3CD9C7BD813E4721EA07504B0304140006080800C05D4C
310
4BFF15A4A45D000000800000003A0000006662782F44353741464234452D323837442D344432412D393430342D3833413644443338333145372F7265736F75726365732F636E782E786D6C4D8B3B0E80201005AF42B6F75B59F0390B113044D83508C6E30BC6C26AF226F3B8BA6360974DA7271430F523308B2B198F9B8092
310
5DB700539227A2FCCB80A18E5640D320F996A81C9F32D6E9129A0D1EF74FCE750E6D57BC7165FBCA07504B0304140006080800C05D4C4B217654864101000056050000300000006662782F44353741464234452D323837442D344432412D393430342D3833413644443338333145372F636E782E786D6CCD94C14E03211086
310
5F6543E27197A5316A1A96261E7C020FC61BCB4E572C0B1B188C7D7BA1D256631A3D34B137327C24FF3FF3337CF53E99EA0D7CD0CE7684352DA9C02A37683B7624E2BABE23D54A70EF1C7EC14865E5041DC96522F8E85D9C4B6980B58C26578DB69B5294885EF71121904A19194247827A81493632A21B206C9A41A26C58E3
310
21B8E815A4F7A82728EF9507893010B168D96DCDDA9A2D1E195B5EDF2C5BF6CC692605EF9D3385D716C1BBF96AD12A978E36C96939CD80E0D1EB42650F441CB535BDB69CA67BC143D26BC7C2E176CEDC3C1BAD24A64651A710B04E10C889D34F58709A1D7FF3FD70FF74D4904E83F6A0D0F9EDBFB5819D6AC3415A9312F1B7
310
2EECC0DFCCBBFE3559FEBFB99F345C849DCDEE3EB92145F76712529EA41DCD257E8083B4F3E73F2D16D4EA124DEF959DC933DDADC034F8BC11C507504B0304140006080800C05D4C4B4CC877EA7E000000A30000000B0000006662782F636E782E786D6C4D8CD10AC22018465F45FE7B6B9B9606EA305CEF319A1B92D3B019
310
3D7E1ABBE8EA83C3778EE83FAB476F9B5E2E0609EDA10164C33D4E2E2C12F236630EA85722C5B8FDDD008571B5122A06259614F37347939DC7EC2BF52E3C76684E4CDFAE74C01D670653D3697CA10DC59CE8B33184937660C53856A5CCAF57B6E6D517504B0304140006080800C05D4C4BA6D797065F000000820000000700
310
0000636E782E786D6C4DCB3B0E80201045D1AD90E9FD7516806B51190811670C8A61F982B1B0BAC9C97B72CA7B1037C6D3332918DA1E04D2CAC69353902EDB8C20262D23F3F59B81A079470595414B17391D1F19B4730A5583A7ED43BBE4025D9592775E5ADFFA01504B0304140006080800C05D4C4BECFD112DA800000026
310
010000130000005B436F6E74656E745F54797065735D2E786D6C7D4F4B0EC22010BD0A61DF525D18634ABB506FE00510A79458060253536F2FD89D5197F3FED3F68B9BD80362B21E25DFD40D6780DADF2C1AC9671AAA3D677DD75E9E0112CB5A4C928F44E12044D22338956A1F003333F8E814E5331A1194BE2B0362DB343B
310
A13D122055543278D79E6050F344ECBC6478EDCD76CE8EABAE5449AE4298AC56946789C28AAFBEABC53F3EAF09A84A1441B91F0101CD4780756578C173A578FFDDBD00504B0304140006080800C05D4C4B3DEE336E64000000790000001B0000006175746F6465736B2D64657369676E2D7061636B6167652E786D6C35CBC1
310
0E83200C00D05F21DCA56CA76D41FC96062B120735B69A7DBE268BB7777961F8D5AF396893C2ADB70FE7ADA196782C2DF776D7A97B5933C430F15651E5469C55D70F80A4992A3ADC954792C525AE70A1E4D6AD9816CC044FEFDF01FE3FDE907802504B0304140006080800C05D4C4BFD1ABBFAF30000008E0100003D000000
310
6662782F44353741464234452D323837442D344432412D393430342D3833413644443338333145372F7265736F75726365732F322F636F72652E786D6C8550CB6EC32010FC156BEFD86093C68D30511DC95FD0536F0888831283C5A3EAE71762576A4F3DED6A76667677D8F96B79549FDA07E3EC00A4C650692B9D32761E20
310
C52BEAA13A73E69D8BBF685059B1E8010A0C9CCDDEA57587A4B351DB825AA7F40E8A1074844A3E7233409037BD885AA49819E15EAF42DEC5AC6B526F3CCE52326A971A95DDCCD5680FFC75BAD003BD5C503B1D7B44C79EA071C407D4BFE1A9A38476D3845953C49C45B3FC6C975E8BA815F0169323221891F69D90137D3961
310
F2C19AC2E42C449F7FDE9796EF329D351BFAC72DADEA7FB7646CECDADD6D5304E0241FF71C70D69474727946976B49927F03504B0304140006080800C05D4C4B2EA88437F8000000960100003B0000006662782F44353741464234452D323837442D344432412D393430342D3833413644443338333145372F7265736F7572
310
6365732F636F72652E786D6C8550CB6E833010FC15B477830DA4A191715422F1053DF566990DB1126CE447D5CFAF1DA8D49E7ADAD5ECCCECEEF0F3D7F2283ED1796D4D0FACA450A05176D266EE21862BE9A0380BEEAC0DBF685018B9600F1906C16767E3BA43CA9A8026A3C64EB883D27B0C50A8476A7AF0EA868B2C650C89
310
E1EFE52AD55DCE58B272E3091EA39E76A99E929BBE6A74205EC74B7B682F17528FC78EB443C7C830D003E9DEE8D8B4AC6DC691F22A8B050F7AF9D9AE1CCA8013889AB2236194B0FA9DB153FB72A2EC83579929B80F2EFDBC2FCDDF8170E86D740A3DAFB6E91FD7B84EFFBB466D4253EFAE9BC28360E9C8E740F02AA794CA33
310
C25473A2E21B504B0304140006080800C05D4C4B2C758B98F2000000B1010000310000006662782F44353741464234452D323837442D344432412D393430342D3833413644443338333145372F636F72652E786D6C8D50CB6EC32010FC156BEF6063BBB11B6122574EBFA0A7DE10100725068B47D5CF2FC4AED4DE725A343B
310
C3CC0E3D7D2FF7E24B39AFAD1980E00A0A658495DACC03C470413D1427469DB5E10F0D0AC31735408681D1D9D9B8EE90B02628935163A5DA41EEBD0A50887B7A0CE0C5552D1CF31812C3DFF0CAC58DCF0A13BCF1180D7AF9950AA7785012585D910E910A91FA8390637B3856E4939699C9688C5AEE565A26777DD1CA019B5E
310
BAF1FDAD3DA3BAEF26D44EF5885EDBAA457D331EA6A9E91B72EE6899C58CFAE0D2CDFB27F9BA67E59BF05FE6B8CA27326B139A7A37DC141E1849791E0B46CB5C601A8F76D3CC65B31F504B0304140006080800C05D4C4B40C2E38453010000DD0200000C0000006662782F636F72652E786D6C8D525D6F832014FD2B867714
310
AC5D5D83346B137FC19EF646915A52058360FAF3077EC4F9B06E314172EEBDE7DC7302393DDB261A84E9A55605C0310291505C5752D50570F60673109D28315ADB1F6D2052AC15050830A0A436DA7533C4B5B2420554E94ACC20EB7B6141C41B7F2940CFEFA2653173D677F48FB863FCC16A11E378EAA3C43959CDA3B2F26C
310
F2268501F4BDBC64FBEC72816979C86176CE313C9FD11EE61FA8DC6538DB9525224918A6C4CA7651E746302B2A4053840F102388D34F8C8FD9DB11E12F92844E4A7A6BBCE75934B803F4767D9264C2377CAEABFEE67352D95D3AF34D133DA0D8AF37162849423EFE3786B7CDD00BFBFC2CBB368B85878706C1AD3699AF54DA
310
ADA581354E786A148D1F49A6AA671E097EE3495FF0BCE6F0413155FBD598F5D7ABB3417DBB53270C1CEC3352DAB4AC59979B565CCF5568636919E7BAD1E63FD38BD525CC243C4CFA0D504B0304140006080800C05D4C4B147D784605010000B201000008000000636F72652E786D6C8D50CD6E8420107E1532771494EDDA0D
310
B2A9263E414FBD51612D590503B869DFBEB06B93F6D6D3906FBE3F869F3F9719DDB40FC6D916684100693B3A65ECD4C2162FB8017416DC3B177FD10059B9E816320C824FDE6DEB0E8DCE466D336A9DD23B2843D011D038A7470B61FCD08B2CE41613235C8B558E5739E982160F9EE0D12C3FD2D16B19B50251117AC494605A
310
BD527A624F2742DF789999826F9B517B945129DD5C8CF6209E879E1D58DFE36A383698750DC55D470EB8792143CD28AB8781F0328B050FD1A73FEF26A9674441DE722E2F1F2BC1DF9D9B77422AA590B3F31788E490177F4A6FABFA476963635DED860F45004153A1FB2205E70BA6713F6F9AF9DAE21B504B01021400140006
310
080800C05D4C4B0000000000000000000000003700000000000000000000000000000000006662782F44353741464234452D323837442D344432412D393430342D3833413644443338333145372F617474726962757465732E62696E504B01021400140006080800C05D4C4B00000000000000000000000035000000000000
310
00000000000000550000006662782F44353741464234452D323837442D344432412D393430342D3833413644443338333145372F76657274696365732E62696E504B01021400140006080800C05D4C4BF270F13306000000040000003600000000000000000000000000A80000006662782F44353741464234452D32383744
310
2D344432412D393430342D3833413644443338333145372F747269616E676C65732E62696E504B01021400140006080800C05D4C4B88E57597CD3F0000904100004200000000000000000000000000020100006662782F44353741464234452D323837442D344432412D393430342D3833413644443338333145372F726573
310
6F75726365732F322F305F67656E657269632E706E67504B01021400140006080800C05D4C4B51464CB4890000004301000036000000000000000000000000002F4100006662782F44353741464234452D323837442D344432412D393430342D3833413644443338333145372F6469726563746F72792E786D6C504B010214
310
00140006080800C05D4C4B4EBF96FB44070000541C000034000000000000000000000000000C4200006662782F44353741464234452D323837442D344432412D393430342D3833413644443338333145372F6F626A656374732E786D6C504B01021400140006080800C05D4C4B8D7871DAE0000000550100003C0000000000
310
0000000000000000A24900006662782F44353741464234452D323837442D344432412D393430342D3833413644443338333145372F7265736F75726365732F322F636E782E786D6C504B01021400140006080800C05D4C4BFF15A4A45D000000800000003A00000000000000000000000000DC4A00006662782F4435374146
310
4234452D323837442D344432412D393430342D3833413644443338333145372F7265736F75726365732F636E782E786D6C504B01021400140006080800C05D4C4B2176548641010000560500003000000000000000000000000000914B00006662782F44353741464234452D323837442D344432412D393430342D38334136
310
44443338333145372F636E782E786D6C504B01021400140006080800C05D4C4B4CC877EA7E000000A30000000B00000000000000000000000000204D00006662782F636E782E786D6C504B01021400140006080800C05D4C4BA6D797065F000000820000000700000000000000000000000000C74D0000636E782E786D6C50
310
4B01021400140006080800C05D4C4BECFD112DA80000002601000013000000000000000000000000004B4E00005B436F6E74656E745F54797065735D2E786D6C504B01021400140006080800C05D4C4B3DEE336E64000000790000001B00000000000000000000000000244F00006175746F6465736B2D64657369676E2D70
310
61636B6167652E786D6C504B01021400140006080800C05D4C4BFD1ABBFAF30000008E0100003D00000000000000000000000000C14F00006662782F44353741464234452D323837442D344432412D393430342D3833413644443338333145372F7265736F75726365732F322F636F72652E786D6C504B0102140014000608
310
0800C05D4C4B2EA88437F8000000960100003B000000000000000000000000000F5100006662782F44353741464234452D323837442D344432412D393430342D3833413644443338333145372F7265736F75726365732F636F72652E786D6C504B01021400140006080800C05D4C4B2C758B98F2000000B101000031000000
310
00000000000000000000605200006662782F44353741464234452D323837442D344432412D393430342D3833413644443338333145372F636F72652E786D6C504B01021400140006080800C05D4C4B40C2E38453010000DD0200000C00000000000000000000000000A15300006662782F636F72652E786D6C504B01021400
310
140006080800C05D4C4B147D784605010000B201000008000000000000000000000000001E550000636F72652E786D6C504B050600000000120012002D060000495600000000
  0
XRECORD
  5
1015747
102
{ACAD_REACTORS
330
1015746
102
}
330
1015746
100
AcDbXrecord
280
     1
102
DISPLAYNAME
  1
Imperial24
102
FLAGS
 90
        0
  0
XRECORD
  5
1015749
102
{ACAD_REACTORS
330
1015748
102
}
330
1015748
100
AcDbXrecord
280
     1
102
DISPLAYNAME
  1
Metric50
102
FLAGS
 90
        0
  0
CELLSTYLEMAP
  5
101574B
102
{ACAD_REACTORS
330
101574A
102
}
330
101574A
100
AcDbCellStyleMap
 90
        3
300
CELLSTYLE
  1
TABLEFORMAT_BEGIN
 90
        5
170
     1
 91
        0
 92
    32768
 62
   257
 93
        1
300
CONTENTFORMAT
  1
CONTENTFORMAT_BEGIN
 90
        0
 91
        0
 92
      512
 93
        0
300

 40
0.0
140
1.0
 94
        5
 62
     0
340
11
144
0.25
309
CONTENTFORMAT_END
171
     0
 94
        6
 95
        1
302
GRIDFORMAT
  1
GRIDFORMAT_BEGIN
 90
        0
 91
        1
 62
     0
 92
       -2
340
0
 93
        0
 40
0.045
309
GRIDFORMAT_END
 95
        2
302
GRIDFORMAT
  1
GRIDFORMAT_BEGIN
 90
        0
 91
        1
 62
     0
 92
       -2
340
0
 93
        0
 40
0.045
309
GRIDFORMAT_END
 95
        4
302
GRIDFORMAT
  1
GRIDFORMAT_BEGIN
 90
        0
 91
        1
 62
     0
 92
       -2
340
0
 93
        0
 40
0.045
309
GRIDFORMAT_END
 95
        8
302
GRIDFORMAT
  1
GRIDFORMAT_BEGIN
 90
        0
 91
        1
 62
     0
 92
       -2
340
0
 93
        0
 40
0.045
309
GRIDFORMAT_END
 95
       16
302
GRIDFORMAT
  1
GRIDFORMAT_BEGIN
 90
        0
 91
        1
 62
     0
 92
       -2
340
0
 93
        0
 40
0.045
309
GRIDFORMAT_END
 95
       32
302
GRIDFORMAT
  1
GRIDFORMAT_BEGIN
 90
        0
 91
        1
 62
     0
 92
       -2
340
0
 93
        0
 40
0.045
309
GRIDFORMAT_END
309
TABLEFORMAT_END
  1
CELLSTYLE_BEGIN
 90
        1
 91
        1
300
_TITLE
309
CELLSTYLE_END
300
CELLSTYLE
  1
TABLEFORMAT_BEGIN
 90
        5
170
     1
 91
        0
 92
        0
 62
   257
 93
        1
300
CONTENTFORMAT
  1
CONTENTFORMAT_BEGIN
 90
        0
 91
        0
 92
      512
 93
        0
300

 40
0.0
140
1.0
 94
        5
 62
     0
340
11
144
0.18
309
CONTENTFORMAT_END
171
     0
 94
        6
 95
        1
302
GRIDFORMAT
  1
GRIDFORMAT_BEGIN
 90
        0
 91
        1
 62
     0
 92
       -2
340
0
 93
        0
 40
0.045
309
GRIDFORMAT_END
 95
        2
302
GRIDFORMAT
  1
GRIDFORMAT_BEGIN
 90
        0
 91
        1
 62
     0
 92
       -2
340
0
 93
        0
 40
0.045
309
GRIDFORMAT_END
 95
        4
302
GRIDFORMAT
  1
GRIDFORMAT_BEGIN
 90
        0
 91
        1
 62
     0
 92
       -2
340
0
 93
        0
 40
0.045
309
GRIDFORMAT_END
 95
        8
302
GRIDFORMAT
  1
GRIDFORMAT_BEGIN
 90
        0
 91
        1
 62
     0
 92
       -2
340
0
 93
        0
 40
0.045
309
GRIDFORMAT_END
 95
       16
302
GRIDFORMAT
  1
GRIDFORMAT_BEGIN
 90
        0
 91
        1
 62
     0
 92
       -2
340
0
 93
        0
 40
0.045
309
GRIDFORMAT_END
 95
       32
302
GRIDFORMAT
  1
GRIDFORMAT_BEGIN
 90
        0
 91
        1
 62
     0
 92
       -2
340
0
 93
        0
 40
0.045
309
GRIDFORMAT_END
309
TABLEFORMAT_END
  1
CELLSTYLE_BEGIN
 90
        2
 91
        1
300
_HEADER
309
CELLSTYLE_END
300
CELLSTYLE
  1
TABLEFORMAT_BEGIN
 90
        5
170
     1
 91
        0
 92
        0
 62
   257
 93
        1
300
CONTENTFORMAT
  1
CONTENTFORMAT_BEGIN
 90
        0
 91
        0
 92
      512
 93
        0
300

 40
0.0
140
1.0
 94
        2
 62
     0
340
11
144
0.18
309
CONTENTFORMAT_END
171
     0
 94
        6
 95
        1
302
GRIDFORMAT
  1
GRIDFORMAT_BEGIN
 90
        0
 91
        1
 62
     0
 92
       -2
340
0
 93
        0
 40
0.045
309
GRIDFORMAT_END
 95
        2
302
GRIDFORMAT
  1
GRIDFORMAT_BEGIN
 90
        0
 91
        1
 62
     0
 92
       -2
340
0
 93
        0
 40
0.045
309
GRIDFORMAT_END
 95
        4
302
GRIDFORMAT
  1
GRIDFORMAT_BEGIN
 90
        0
 91
        1
 62
     0
 92
       -2
340
0
 93
        0
 40
0.045
309
GRIDFORMAT_END
 95
        8
302
GRIDFORMAT
  1
GRIDFORMAT_BEGIN
 90
        0
 91
        1
 62
     0
 92
       -2
340
0
 93
        0
 40
0.045
309
GRIDFORMAT_END
 95
       16
302
GRIDFORMAT
  1
GRIDFORMAT_BEGIN
 90
        0
 91
        1
 62
     0
 92
       -2
340
0
 93
        0
 40
0.045
309
GRIDFORMAT_END
 95
       32
302
GRIDFORMAT
  1
GRIDFORMAT_BEGIN
 90
        0
 91
        1
 62
     0
 92
       -2
340
0
 93
        0
 40
0.045
309
GRIDFORMAT_END
309
TABLEFORMAT_END
  1
CELLSTYLE_BEGIN
 90
        3
 91
        2
300
_DATA
309
CELLSTYLE_END
  0
XRECORD
  5
101574D
102
{ACAD_REACTORS
330
101574C
102
}
330
101574C
100
AcDbXrecord
280
     1
102
RTVSPost2010Prop28
280
     1
102
RTVSPost2010PropOp28
 70
     1
102
RTVSPost2010Prop29
280
     1
102
RTVSPost2010PropOp29
 70
     1
102
RTVSPost2010Prop30
280
     0
102
RTVSPost2010PropOp30
 70
     1
102
RTVSPost2010Prop31
280
     0
102
RTVSPost2010PropOp31
 70
     1
102
RTVSPost2010Prop32
280
     0
102
RTVSPost2010PropOp32
 70
     1
102
RTVSPost2010Prop33
280
     0
102
RTVSPost2010PropOp33
 70
     1
102
RTVSPost2010Prop34
280
     0
102
RTVSPost2010PropOp34
 70
     1
102
RTVSPost2010Prop35
280
     0
102
RTVSPost2010PropOp35
 70
     1
102
RTVSPost2010Prop36
280
     0
102
RTVSPost2010PropOp36
 70
     1
102
RTVSPost2010Prop37
 90
       50
102
RTVSPost2010PropOp37
 70
     1
102
RTVSPost2010Prop38
140
0.0
102
RTVSPost2010PropOp38
 70
     1
102
RTVSPost2010Prop39
140
1.0
102
RTVSPost2010PropOp39
 70
     1
102
RTVSPost2010Prop40
 90
        0
102
RTVSPost2010PropOp40
 70
     1
102
RTVSPost2010Prop41ColorIndex
 90
       18
102
RTVSPost2010Prop41ColorRGB
 90
        0
102
RTVSPost2010PropOp41
 70
     1
102
RTVSPost2010Prop42
 90
       50
102
RTVSPost2010PropOp42
 70
     1
102
RTVSPost2010Prop43
 90
        3
102
RTVSPost2010PropOp43
 70
     1
102
RTVSPost2010Prop44ColorIndex
 90
        5
102
RTVSPost2010Prop44ColorRGB
 90
      255
102
RTVSPost2010PropOp44
 70
     1
102
RTVSPost2010Prop45
280
     0
102
RTVSPost2010PropOp45
 70
     1
102
RTVSPost2010Prop46
 90
       50
102
RTVSPost2010PropOp46
 70
     1
102
RTVSPost2010Prop47
 90
       50
102
RTVSPost2010PropOp47
 70
     1
102
RTVSPost2010Prop48
 90
       50
102
RTVSPost2010PropOp48
 70
     1
102
RTVSPost2010Prop49
280
     0
102
RTVSPost2010PropOp49
 70
     1
102
RTVSPost2010Prop50
 90
       50
102
RTVSPost2010PropOp50
 70
     1
102
RTVSPost2010Prop51ColorIndex
 90
      256
102
RTVSPost2010Prop51ColorRGB
 90
-16777216
102
RTVSPost2010PropOp51
 70
     0
102
RTVSPost2010Prop52
140
1.0
102
RTVSPost2010PropOp52
 70
     0
102
RTVSPost2010Prop53
 90
        2
102
RTVSPost2010PropOp53
 70
     1
102
RTVSPost2010Prop54
  1
strokes_ogs.tif
102
RTVSPost2010PropOp54
 70
     1
102
RTVSPost2010Prop55
280
     0
102
RTVSPost2010PropOp55
 70
     1
102
RTVSPost2010Prop56
140
1.0
102
RTVSPost2010PropOp56
 70
     1
102
RTVSPost2010Prop57
140
1.0
102
RTVSPost2010PropOp57
 70
     1
  0
XRECORD
  5
101574F
102
{ACAD_REACTORS
330
101574E
102
}
330
101574E
100
AcDbXrecord
280
     1
102
RTVSPost2010Prop28
280
     0
102
RTVSPost2010PropOp28
 70
     1
102
RTVSPost2010Prop29
280
     1
102
RTVSPost2010PropOp29
 70
     1
102
RTVSPost2010Prop30
280
     1
102
RTVSPost2010PropOp30
 70
     1
102
RTVSPost2010Prop31
280
     0
102
RTVSPost2010PropOp31
 70
     1
102
RTVSPost2010Prop32
280
     0
102
RTVSPost2010PropOp32
 70
     1
102
RTVSPost2010Prop33
280
     0
102
RTVSPost2010PropOp33
 70
     1
102
RTVSPost2010Prop34
280
     0
102
RTVSPost2010PropOp34
 70
     1
102
RTVSPost2010Prop35
280
     0
102
RTVSPost2010PropOp35
 70
     1
102
RTVSPost2010Prop36
280
     0
102
RTVSPost2010PropOp36
 70
     1
102
RTVSPost2010Prop37
 90
       50
102
RTVSPost2010PropOp37
 70
     1
102
RTVSPost2010Prop38
140
0.0
102
RTVSPost2010PropOp38
 70
     1
102
RTVSPost2010Prop39
140
1.0
102
RTVSPost2010PropOp39
 70
     1
102
RTVSPost2010Prop40
 90
        0
102
RTVSPost2010PropOp40
 70
     1
102
RTVSPost2010Prop41ColorIndex
 90
       18
102
RTVSPost2010Prop41ColorRGB
 90
        0
102
RTVSPost2010PropOp41
 70
     1
102
RTVSPost2010Prop42
 90
       50
102
RTVSPost2010PropOp42
 70
     1
102
RTVSPost2010Prop43
 90
        3
102
RTVSPost2010PropOp43
 70
     1
102
RTVSPost2010Prop44ColorIndex
 90
        5
102
RTVSPost2010Prop44ColorRGB
 90
      255
102
RTVSPost2010PropOp44
 70
     1
102
RTVSPost2010Prop45
280
     0
102
RTVSPost2010PropOp45
 70
     1
102
RTVSPost2010Prop46
 90
       50
102
RTVSPost2010PropOp46
 70
     1
102
RTVSPost2010Prop47
 90
       50
102
RTVSPost2010PropOp47
 70
     1
102
RTVSPost2010Prop48
 90
       50
102
RTVSPost2010PropOp48
 70
     1
102
RTVSPost2010Prop49
280
     0
102
RTVSPost2010PropOp49
 70
     1
102
RTVSPost2010Prop50
 90
       50
102
RTVSPost2010PropOp50
 70
     1
102
RTVSPost2010Prop51ColorIndex
 90
      256
102
RTVSPost2010Prop51ColorRGB
 90
-16777216
102
RTVSPost2010PropOp51
 70
     0
102
RTVSPost2010Prop52
140
1.0
102
RTVSPost2010PropOp52
 70
     0
102
RTVSPost2010Prop53
 90
        2
102
RTVSPost2010PropOp53
 70
     1
102
RTVSPost2010Prop54
  1
strokes_ogs.tif
102
RTVSPost2010PropOp54
 70
     1
102
RTVSPost2010Prop55
280
     0
102
RTVSPost2010PropOp55
 70
     1
102
RTVSPost2010Prop56
140
1.0
102
RTVSPost2010PropOp56
 70
     1
102
RTVSPost2010Prop57
140
1.0
102
RTVSPost2010PropOp57
 70
     1
  0
XRECORD
  5
1015751
102
{ACAD_REACTORS
330
1015750
102
}
330
1015750
100
AcDbXrecord
280
     1
102
RTVSPost2010Prop28
280
     0
102
RTVSPost2010PropOp28
 70
     1
102
RTVSPost2010Prop29
280
     1
102
RTVSPost2010PropOp29
 70
     1
102
RTVSPost2010Prop30
280
     1
102
RTVSPost2010PropOp30
 70
     1
102
RTVSPost2010Prop31
280
     0
102
RTVSPost2010PropOp31
 70
     1
102
RTVSPost2010Prop32
280
     0
102
RTVSPost2010PropOp32
 70
     1
102
RTVSPost2010Prop33
280
     0
102
RTVSPost2010PropOp33
 70
     1
102
RTVSPost2010Prop34
280
     0
102
RTVSPost2010PropOp34
 70
     1
102
RTVSPost2010Prop35
280
     0
102
RTVSPost2010PropOp35
 70
     1
102
RTVSPost2010Prop36
280
     0
102
RTVSPost2010PropOp36
 70
     1
102
RTVSPost2010Prop37
 90
       50
102
RTVSPost2010PropOp37
 70
     1
102
RTVSPost2010Prop38
140
0.0
102
RTVSPost2010PropOp38
 70
     1
102
RTVSPost2010Prop39
140
1.0
102
RTVSPost2010PropOp39
 70
     1
102
RTVSPost2010Prop40
 90
        0
102
RTVSPost2010PropOp40
 70
     1
102
RTVSPost2010Prop41ColorIndex
 90
       18
102
RTVSPost2010Prop41ColorRGB
 90
        0
102
RTVSPost2010PropOp41
 70
     1
102
RTVSPost2010Prop42
 90
       50
102
RTVSPost2010PropOp42
 70
     1
102
RTVSPost2010Prop43
 90
        3
102
RTVSPost2010PropOp43
 70
     1
102
RTVSPost2010Prop44ColorIndex
 90
        5
102
RTVSPost2010Prop44ColorRGB
 90
      255
102
RTVSPost2010PropOp44
 70
     1
102
RTVSPost2010Prop45
280
     0
102
RTVSPost2010PropOp45
 70
     1
102
RTVSPost2010Prop46
 90
       50
102
RTVSPost2010PropOp46
 70
     1
102
RTVSPost2010Prop47
 90
       50
102
RTVSPost2010PropOp47
 70
     1
102
RTVSPost2010Prop48
 90
       50
102
RTVSPost2010PropOp48
 70
     1
102
RTVSPost2010Prop49
280
     0
102
RTVSPost2010PropOp49
 70
     1
102
RTVSPost2010Prop50
 90
       50
102
RTVSPost2010PropOp50
 70
     1
102
RTVSPost2010Prop51ColorIndex
 90
      256
102
RTVSPost2010Prop51ColorRGB
 90
-16777216
102
RTVSPost2010PropOp51
 70
     0
102
RTVSPost2010Prop52
140
1.0
102
RTVSPost2010PropOp52
 70
     0
102
RTVSPost2010Prop53
 90
        2
102
RTVSPost2010PropOp53
 70
     1
102
RTVSPost2010Prop54
  1
strokes_ogs.tif
102
RTVSPost2010PropOp54
 70
     1
102
RTVSPost2010Prop55
280
     0
102
RTVSPost2010PropOp55
 70
     1
102
RTVSPost2010Prop56
140
1.0
102
RTVSPost2010PropOp56
 70
     1
102
RTVSPost2010Prop57
140
1.0
102
RTVSPost2010PropOp57
 70
     1
  0
XRECORD
  5
1015753
102
{ACAD_REACTORS
330
1015752
102
}
330
1015752
100
AcDbXrecord
280
     1
102
RTVSPost2010Prop28
280
     0
102
RTVSPost2010PropOp28
 70
     1
102
RTVSPost2010Prop29
280
     1
102
RTVSPost2010PropOp29
 70
     1
102
RTVSPost2010Prop30
280
     1
102
RTVSPost2010PropOp30
 70
     1
102
RTVSPost2010Prop31
280
     0
102
RTVSPost2010PropOp31
 70
     1
102
RTVSPost2010Prop32
280
     0
102
RTVSPost2010PropOp32
 70
     1
102
RTVSPost2010Prop33
280
     0
102
RTVSPost2010PropOp33
 70
     1
102
RTVSPost2010Prop34
280
     0
102
RTVSPost2010PropOp34
 70
     1
102
RTVSPost2010Prop35
280
     0
102
RTVSPost2010PropOp35
 70
     1
102
RTVSPost2010Prop36
280
     0
102
RTVSPost2010PropOp36
 70
     1
102
RTVSPost2010Prop37
 90
       50
102
RTVSPost2010PropOp37
 70
     1
102
RTVSPost2010Prop38
140
0.0
102
RTVSPost2010PropOp38
 70
     1
102
RTVSPost2010Prop39
140
1.0
102
RTVSPost2010PropOp39
 70
     1
102
RTVSPost2010Prop40
 90
        0
102
RTVSPost2010PropOp40
 70
     1
102
RTVSPost2010Prop41ColorIndex
 90
       18
102
RTVSPost2010Prop41ColorRGB
 90
        0
102
RTVSPost2010PropOp41
 70
     1
102
RTVSPost2010Prop42
 90
       50
102
RTVSPost2010PropOp42
 70
     1
102
RTVSPost2010Prop43
 90
        3
102
RTVSPost2010PropOp43
 70
     1
102
RTVSPost2010Prop44ColorIndex
 90
        5
102
RTVSPost2010Prop44ColorRGB
 90
      255
102
RTVSPost2010PropOp44
 70
     1
102
RTVSPost2010Prop45
280
     0
102
RTVSPost2010PropOp45
 70
     1
102
RTVSPost2010Prop46
 90
       50
102
RTVSPost2010PropOp46
 70
     1
102
RTVSPost2010Prop47
 90
       50
102
RTVSPost2010PropOp47
 70
     1
102
RTVSPost2010Prop48
 90
       50
102
RTVSPost2010PropOp48
 70
     1
102
RTVSPost2010Prop49
280
     0
102
RTVSPost2010PropOp49
 70
     1
102
RTVSPost2010Prop50
 90
       50
102
RTVSPost2010PropOp50
 70
     1
102
RTVSPost2010Prop51ColorIndex
 90
      256
102
RTVSPost2010Prop51ColorRGB
 90
-16777216
102
RTVSPost2010PropOp51
 70
     0
102
RTVSPost2010Prop52
140
1.0
102
RTVSPost2010PropOp52
 70
     0
102
RTVSPost2010Prop53
 90
        2
102
RTVSPost2010PropOp53
 70
     1
102
RTVSPost2010Prop54
  1
strokes_ogs.tif
102
RTVSPost2010PropOp54
 70
     1
102
RTVSPost2010Prop55
280
     0
102
RTVSPost2010PropOp55
 70
     1
102
RTVSPost2010Prop56
140
1.0
102
RTVSPost2010PropOp56
 70
     1
102
RTVSPost2010Prop57
140
1.0
102
RTVSPost2010PropOp57
 70
     1
  0
XRECORD
  5
1015755
102
{ACAD_REACTORS
330
1015754
102
}
330
1015754
100
AcDbXrecord
280
     1
102
RTVSPost2010Prop28
280
     0
102
RTVSPost2010PropOp28
 70
     1
102
RTVSPost2010Prop29
280
     1
102
RTVSPost2010PropOp29
 70
     1
102
RTVSPost2010Prop30
280
     1
102
RTVSPost2010PropOp30
 70
     1
102
RTVSPost2010Prop31
280
     0
102
RTVSPost2010PropOp31
 70
     1
102
RTVSPost2010Prop32
280
     0
102
RTVSPost2010PropOp32
 70
     1
102
RTVSPost2010Prop33
280
     0
102
RTVSPost2010PropOp33
 70
     1
102
RTVSPost2010Prop34
280
     0
102
RTVSPost2010PropOp34
 70
     1
102
RTVSPost2010Prop35
280
     0
102
RTVSPost2010PropOp35
 70
     1
102
RTVSPost2010Prop36
280
     0
102
RTVSPost2010PropOp36
 70
     1
102
RTVSPost2010Prop37
 90
       50
102
RTVSPost2010PropOp37
 70
     1
102
RTVSPost2010Prop38
140
0.0
102
RTVSPost2010PropOp38
 70
     1
102
RTVSPost2010Prop39
140
1.0
102
RTVSPost2010PropOp39
 70
     1
102
RTVSPost2010Prop40
 90
        0
102
RTVSPost2010PropOp40
 70
     1
102
RTVSPost2010Prop41ColorIndex
 90
       18
102
RTVSPost2010Prop41ColorRGB
 90
        0
102
RTVSPost2010PropOp41
 70
     1
102
RTVSPost2010Prop42
 90
       50
102
RTVSPost2010PropOp42
 70
     1
102
RTVSPost2010Prop43
 90
        3
102
RTVSPost2010PropOp43
 70
     1
102
RTVSPost2010Prop44ColorIndex
 90
        5
102
RTVSPost2010Prop44ColorRGB
 90
      255
102
RTVSPost2010PropOp44
 70
     1
102
RTVSPost2010Prop45
280
     0
102
RTVSPost2010PropOp45
 70
     1
102
RTVSPost2010Prop46
 90
       50
102
RTVSPost2010PropOp46
 70
     1
102
RTVSPost2010Prop47
 90
       50
102
RTVSPost2010PropOp47
 70
     1
102
RTVSPost2010Prop48
 90
       50
102
RTVSPost2010PropOp48
 70
     1
102
RTVSPost2010Prop49
280
     0
102
RTVSPost2010PropOp49
 70
     1
102
RTVSPost2010Prop50
 90
       50
102
RTVSPost2010PropOp50
 70
     1
102
RTVSPost2010Prop51ColorIndex
 90
      256
102
RTVSPost2010Prop51ColorRGB
 90
-16777216
102
RTVSPost2010PropOp51
 70
     0
102
RTVSPost2010Prop52
140
1.0
102
RTVSPost2010PropOp52
 70
     0
102
RTVSPost2010Prop53
 90
        2
102
RTVSPost2010PropOp53
 70
     1
102
RTVSPost2010Prop54
  1
strokes_ogs.tif
102
RTVSPost2010PropOp54
 70
     1
102
RTVSPost2010Prop55
280
     0
102
RTVSPost2010PropOp55
 70
     1
102
RTVSPost2010Prop56
140
1.0
102
RTVSPost2010PropOp56
 70
     1
102
RTVSPost2010Prop57
140
1.0
102
RTVSPost2010PropOp57
 70
     1
  0
XRECORD
  5
1015757
102
{ACAD_REACTORS
330
1015756
102
}
330
1015756
100
AcDbXrecord
280
     1
102
RTVSPost2010Prop28
280
     0
102
RTVSPost2010PropOp28
 70
     1
102
RTVSPost2010Prop29
280
     1
102
RTVSPost2010PropOp29
 70
     1
102
RTVSPost2010Prop30
280
     1
102
RTVSPost2010PropOp30
 70
     1
102
RTVSPost2010Prop31
280
     0
102
RTVSPost2010PropOp31
 70
     1
102
RTVSPost2010Prop32
280
     0
102
RTVSPost2010PropOp32
 70
     1
102
RTVSPost2010Prop33
280
     0
102
RTVSPost2010PropOp33
 70
     1
102
RTVSPost2010Prop34
280
     0
102
RTVSPost2010PropOp34
 70
     1
102
RTVSPost2010Prop35
280
     0
102
RTVSPost2010PropOp35
 70
     1
102
RTVSPost2010Prop36
280
     0
102
RTVSPost2010PropOp36
 70
     1
102
RTVSPost2010Prop37
 90
       50
102
RTVSPost2010PropOp37
 70
     1
102
RTVSPost2010Prop38
140
0.0
102
RTVSPost2010PropOp38
 70
     1
102
RTVSPost2010Prop39
140
1.0
102
RTVSPost2010PropOp39
 70
     1
102
RTVSPost2010Prop40
 90
        0
102
RTVSPost2010PropOp40
 70
     1
102
RTVSPost2010Prop41ColorIndex
 90
       18
102
RTVSPost2010Prop41ColorRGB
 90
        0
102
RTVSPost2010PropOp41
 70
     1
102
RTVSPost2010Prop42
 90
       50
102
RTVSPost2010PropOp42
 70
     1
102
RTVSPost2010Prop43
 90
        3
102
RTVSPost2010PropOp43
 70
     1
102
RTVSPost2010Prop44ColorIndex
 90
        5
102
RTVSPost2010Prop44ColorRGB
 90
      255
102
RTVSPost2010PropOp44
 70
     1
102
RTVSPost2010Prop45
280
     0
102
RTVSPost2010PropOp45
 70
     1
102
RTVSPost2010Prop46
 90
       50
102
RTVSPost2010PropOp46
 70
     1
102
RTVSPost2010Prop47
 90
       50
102
RTVSPost2010PropOp47
 70
     1
102
RTVSPost2010Prop48
 90
       50
102
RTVSPost2010PropOp48
 70
     1
102
RTVSPost2010Prop49
280
     0
102
RTVSPost2010PropOp49
 70
     1
102
RTVSPost2010Prop50
 90
       50
102
RTVSPost2010PropOp50
 70
     1
102
RTVSPost2010Prop51ColorIndex
 90
      256
102
RTVSPost2010Prop51ColorRGB
 90
-16777216
102
RTVSPost2010PropOp51
 70
     0
102
RTVSPost2010Prop52
140
1.0
102
RTVSPost2010PropOp52
 70
     0
102
RTVSPost2010Prop53
 90
        2
102
RTVSPost2010PropOp53
 70
     1
102
RTVSPost2010Prop54
  1
strokes_ogs.tif
102
RTVSPost2010PropOp54
 70
     1
102
RTVSPost2010Prop55
280
     0
102
RTVSPost2010PropOp55
 70
     1
102
RTVSPost2010Prop56
140
1.0
102
RTVSPost2010PropOp56
 70
     1
102
RTVSPost2010Prop57
140
1.0
102
RTVSPost2010PropOp57
 70
     1
  0
XRECORD
  5
1015759
102
{ACAD_REACTORS
330
1015758
102
}
330
1015758
100
AcDbXrecord
280
     1
102
RTVSPost2010Prop28
280
     0
102
RTVSPost2010PropOp28
 70
     1
102
RTVSPost2010Prop29
280
     1
102
RTVSPost2010PropOp29
 70
     1
102
RTVSPost2010Prop30
280
     1
102
RTVSPost2010PropOp30
 70
     1
102
RTVSPost2010Prop31
280
     0
102
RTVSPost2010PropOp31
 70
     1
102
RTVSPost2010Prop32
280
     0
102
RTVSPost2010PropOp32
 70
     1
102
RTVSPost2010Prop33
280
     0
102
RTVSPost2010PropOp33
 70
     1
102
RTVSPost2010Prop34
280
     0
102
RTVSPost2010PropOp34
 70
     1
102
RTVSPost2010Prop35
280
     0
102
RTVSPost2010PropOp35
 70
     1
102
RTVSPost2010Prop36
280
     0
102
RTVSPost2010PropOp36
 70
     1
102
RTVSPost2010Prop37
 90
       50
102
RTVSPost2010PropOp37
 70
     1
102
RTVSPost2010Prop38
140
0.0
102
RTVSPost2010PropOp38
 70
     1
102
RTVSPost2010Prop39
140
1.0
102
RTVSPost2010PropOp39
 70
     1
102
RTVSPost2010Prop40
 90
        0
102
RTVSPost2010PropOp40
 70
     1
102
RTVSPost2010Prop41ColorIndex
 90
       18
102
RTVSPost2010Prop41ColorRGB
 90
        0
102
RTVSPost2010PropOp41
 70
     1
102
RTVSPost2010Prop42
 90
       50
102
RTVSPost2010PropOp42
 70
     1
102
RTVSPost2010Prop43
 90
        3
102
RTVSPost2010PropOp43
 70
     1
102
RTVSPost2010Prop44ColorIndex
 90
        5
102
RTVSPost2010Prop44ColorRGB
 90
      255
102
RTVSPost2010PropOp44
 70
     1
102
RTVSPost2010Prop45
280
     0
102
RTVSPost2010PropOp45
 70
     1
102
RTVSPost2010Prop46
 90
       50
102
RTVSPost2010PropOp46
 70
     1
102
RTVSPost2010Prop47
 90
       50
102
RTVSPost2010PropOp47
 70
     1
102
RTVSPost2010Prop48
 90
       50
102
RTVSPost2010PropOp48
 70
     1
102
RTVSPost2010Prop49
280
     0
102
RTVSPost2010PropOp49
 70
     1
102
RTVSPost2010Prop50
 90
       50
102
RTVSPost2010PropOp50
 70
     1
102
RTVSPost2010Prop51ColorIndex
 90
      256
102
RTVSPost2010Prop51ColorRGB
 90
-16777216
102
RTVSPost2010PropOp51
 70
     0
102
RTVSPost2010Prop52
140
1.0
102
RTVSPost2010PropOp52
 70
     0
102
RTVSPost2010Prop53
 90
        2
102
RTVSPost2010PropOp53
 70
     1
102
RTVSPost2010Prop54
  1
strokes_ogs.tif
102
RTVSPost2010PropOp54
 70
     1
102
RTVSPost2010Prop55
280
     0
102
RTVSPost2010PropOp55
 70
     1
102
RTVSPost2010Prop56
140
1.0
102
RTVSPost2010PropOp56
 70
     1
102
RTVSPost2010Prop57
140
1.0
102
RTVSPost2010PropOp57
 70
     1
  0
XRECORD
  5
101575B
102
{ACAD_REACTORS
330
101575A
102
}
330
101575A
100
AcDbXrecord
280
     1
102
RTVSPost2010Prop28
280
     0
102
RTVSPost2010PropOp28
 70
     1
102
RTVSPost2010Prop29
280
     1
102
RTVSPost2010PropOp29
 70
     1
102
RTVSPost2010Prop30
280
     1
102
RTVSPost2010PropOp30
 70
     1
102
RTVSPost2010Prop31
280
     0
102
RTVSPost2010PropOp31
 70
     1
102
RTVSPost2010Prop32
280
     0
102
RTVSPost2010PropOp32
 70
     1
102
RTVSPost2010Prop33
280
     0
102
RTVSPost2010PropOp33
 70
     1
102
RTVSPost2010Prop34
280
     0
102
RTVSPost2010PropOp34
 70
     1
102
RTVSPost2010Prop35
280
     0
102
RTVSPost2010PropOp35
 70
     1
102
RTVSPost2010Prop36
280
     0
102
RTVSPost2010PropOp36
 70
     1
102
RTVSPost2010Prop37
 90
       50
102
RTVSPost2010PropOp37
 70
     1
102
RTVSPost2010Prop38
140
0.0
102
RTVSPost2010PropOp38
 70
     1
102
RTVSPost2010Prop39
140
1.0
102
RTVSPost2010PropOp39
 70
     1
102
RTVSPost2010Prop40
 90
        0
102
RTVSPost2010PropOp40
 70
     1
102
RTVSPost2010Prop41ColorIndex
 90
       18
102
RTVSPost2010Prop41ColorRGB
 90
        0
102
RTVSPost2010PropOp41
 70
     1
102
RTVSPost2010Prop42
 90
       50
102
RTVSPost2010PropOp42
 70
     1
102
RTVSPost2010Prop43
 90
        3
102
RTVSPost2010PropOp43
 70
     1
102
RTVSPost2010Prop44ColorIndex
 90
        5
102
RTVSPost2010Prop44ColorRGB
 90
      255
102
RTVSPost2010PropOp44
 70
     1
102
RTVSPost2010Prop45
280
     0
102
RTVSPost2010PropOp45
 70
     1
102
RTVSPost2010Prop46
 90
       50
102
RTVSPost2010PropOp46
 70
     1
102
RTVSPost2010Prop47
 90
       50
102
RTVSPost2010PropOp47
 70
     1
102
RTVSPost2010Prop48
 90
       50
102
RTVSPost2010PropOp48
 70
     1
102
RTVSPost2010Prop49
280
     0
102
RTVSPost2010PropOp49
 70
     1
102
RTVSPost2010Prop50
 90
       50
102
RTVSPost2010PropOp50
 70
     1
102
RTVSPost2010Prop51ColorIndex
 90
      256
102
RTVSPost2010Prop51ColorRGB
 90
-16777216
102
RTVSPost2010PropOp51
 70
     0
102
RTVSPost2010Prop52
140
1.0
102
RTVSPost2010PropOp52
 70
     0
102
RTVSPost2010Prop53
 90
        2
102
RTVSPost2010PropOp53
 70
     1
102
RTVSPost2010Prop54
  1
strokes_ogs.tif
102
RTVSPost2010PropOp54
 70
     1
102
RTVSPost2010Prop55
280
     0
102
RTVSPost2010PropOp55
 70
     1
102
RTVSPost2010Prop56
140
1.0
102
RTVSPost2010PropOp56
 70
     1
102
RTVSPost2010Prop57
140
1.0
102
RTVSPost2010PropOp57
 70
     1
  0
XRECORD
  5
101575D
102
{ACAD_REACTORS
330
101575C
102
}
330
101575C
100
AcDbXrecord
280
     1
102
RTVSPost2010Prop28
280
     0
102
RTVSPost2010PropOp28
 70
     1
102
RTVSPost2010Prop29
280
     1
102
RTVSPost2010PropOp29
 70
     1
102
RTVSPost2010Prop30
280
     1
102
RTVSPost2010PropOp30
 70
     1
102
RTVSPost2010Prop31
280
     0
102
RTVSPost2010PropOp31
 70
     1
102
RTVSPost2010Prop32
280
     0
102
RTVSPost2010PropOp32
 70
     1
102
RTVSPost2010Prop33
280
     0
102
RTVSPost2010PropOp33
 70
     1
102
RTVSPost2010Prop34
280
     0
102
RTVSPost2010PropOp34
 70
     1
102
RTVSPost2010Prop35
280
     0
102
RTVSPost2010PropOp35
 70
     1
102
RTVSPost2010Prop36
280
     0
102
RTVSPost2010PropOp36
 70
     1
102
RTVSPost2010Prop37
 90
       50
102
RTVSPost2010PropOp37
 70
     1
102
RTVSPost2010Prop38
140
0.0
102
RTVSPost2010PropOp38
 70
     1
102
RTVSPost2010Prop39
140
1.0
102
RTVSPost2010PropOp39
 70
     1
102
RTVSPost2010Prop40
 90
        0
102
RTVSPost2010PropOp40
 70
     1
102
RTVSPost2010Prop41ColorIndex
 90
       18
102
RTVSPost2010Prop41ColorRGB
 90
        0
102
RTVSPost2010PropOp41
 70
     1
102
RTVSPost2010Prop42
 90
       50
102
RTVSPost2010PropOp42
 70
     1
102
RTVSPost2010Prop43
 90
        3
102
RTVSPost2010PropOp43
 70
     1
102
RTVSPost2010Prop44ColorIndex
 90
        5
102
RTVSPost2010Prop44ColorRGB
 90
      255
102
RTVSPost2010PropOp44
 70
     1
102
RTVSPost2010Prop45
280
     0
102
RTVSPost2010PropOp45
 70
     1
102
RTVSPost2010Prop46
 90
       50
102
RTVSPost2010PropOp46
 70
     1
102
RTVSPost2010Prop47
 90
       50
102
RTVSPost2010PropOp47
 70
     1
102
RTVSPost2010Prop48
 90
       50
102
RTVSPost2010PropOp48
 70
     1
102
RTVSPost2010Prop49
280
     0
102
RTVSPost2010PropOp49
 70
     1
102
RTVSPost2010Prop50
 90
       50
102
RTVSPost2010PropOp50
 70
     1
102
RTVSPost2010Prop51ColorIndex
 90
      256
102
RTVSPost2010Prop51ColorRGB
 90
-16777216
102
RTVSPost2010PropOp51
 70
     0
102
RTVSPost2010Prop52
140
1.0
102
RTVSPost2010PropOp52
 70
     0
102
RTVSPost2010Prop53
 90
        2
102
RTVSPost2010PropOp53
 70
     1
102
RTVSPost2010Prop54
  1
strokes_ogs.tif
102
RTVSPost2010PropOp54
 70
     1
102
RTVSPost2010Prop55
280
     0
102
RTVSPost2010PropOp55
 70
     1
102
RTVSPost2010Prop56
140
1.0
102
RTVSPost2010PropOp56
 70
     1
102
RTVSPost2010Prop57
140
1.0
102
RTVSPost2010PropOp57
 70
     1
  0
XRECORD
  5
101575F
102
{ACAD_REACTORS
330
101575E
102
}
330
101575E
100
AcDbXrecord
280
     1
102
RTVSPost2010Prop28
280
     0
102
RTVSPost2010PropOp28
 70
     1
102
RTVSPost2010Prop29
280
     1
102
RTVSPost2010PropOp29
 70
     1
102
RTVSPost2010Prop30
280
     1
102
RTVSPost2010PropOp30
 70
     1
102
RTVSPost2010Prop31
280
     0
102
RTVSPost2010PropOp31
 70
     1
102
RTVSPost2010Prop32
280
     0
102
RTVSPost2010PropOp32
 70
     1
102
RTVSPost2010Prop33
280
     0
102
RTVSPost2010PropOp33
 70
     1
102
RTVSPost2010Prop34
280
     0
102
RTVSPost2010PropOp34
 70
     1
102
RTVSPost2010Prop35
280
     0
102
RTVSPost2010PropOp35
 70
     1
102
RTVSPost2010Prop36
280
     0
102
RTVSPost2010PropOp36
 70
     1
102
RTVSPost2010Prop37
 90
       50
102
RTVSPost2010PropOp37
 70
     1
102
RTVSPost2010Prop38
140
0.0
102
RTVSPost2010PropOp38
 70
     1
102
RTVSPost2010Prop39
140
1.0
102
RTVSPost2010PropOp39
 70
     1
102
RTVSPost2010Prop40
 90
        0
102
RTVSPost2010PropOp40
 70
     1
102
RTVSPost2010Prop41ColorIndex
 90
       18
102
RTVSPost2010Prop41ColorRGB
 90
        0
102
RTVSPost2010PropOp41
 70
     1
102
RTVSPost2010Prop42
 90
       50
102
RTVSPost2010PropOp42
 70
     1
102
RTVSPost2010Prop43
 90
        3
102
RTVSPost2010PropOp43
 70
     1
102
RTVSPost2010Prop44ColorIndex
 90
        5
102
RTVSPost2010Prop44ColorRGB
 90
      255
102
RTVSPost2010PropOp44
 70
     1
102
RTVSPost2010Prop45
280
     0
102
RTVSPost2010PropOp45
 70
     1
102
RTVSPost2010Prop46
 90
       50
102
RTVSPost2010PropOp46
 70
     1
102
RTVSPost2010Prop47
 90
       50
102
RTVSPost2010PropOp47
 70
     1
102
RTVSPost2010Prop48
 90
       50
102
RTVSPost2010PropOp48
 70
     1
102
RTVSPost2010Prop49
280
     0
102
RTVSPost2010PropOp49
 70
     1
102
RTVSPost2010Prop50
 90
       50
102
RTVSPost2010PropOp50
 70
     1
102
RTVSPost2010Prop51ColorIndex
 90
      256
102
RTVSPost2010Prop51ColorRGB
 90
-16777216
102
RTVSPost2010PropOp51
 70
     0
102
RTVSPost2010Prop52
140
1.0
102
RTVSPost2010PropOp52
 70
     0
102
RTVSPost2010Prop53
 90
        2
102
RTVSPost2010PropOp53
 70
     1
102
RTVSPost2010Prop54
  1
strokes_ogs.tif
102
RTVSPost2010PropOp54
 70
     1
102
RTVSPost2010Prop55
280
     0
102
RTVSPost2010PropOp55
 70
     1
102
RTVSPost2010Prop56
140
1.0
102
RTVSPost2010PropOp56
 70
     1
102
RTVSPost2010Prop57
140
1.0
102
RTVSPost2010PropOp57
 70
     1
  0
XRECORD
  5
1015761
102
{ACAD_REACTORS
330
1015760
102
}
330
1015760
100
AcDbXrecord
280
     1
102
RTVSPost2010Prop28
280
     0
102
RTVSPost2010PropOp28
 70
     1
102
RTVSPost2010Prop29
280
     1
102
RTVSPost2010PropOp29
 70
     1
102
RTVSPost2010Prop30
280
     1
102
RTVSPost2010PropOp30
 70
     1
102
RTVSPost2010Prop31
280
     0
102
RTVSPost2010PropOp31
 70
     1
102
RTVSPost2010Prop32
280
     0
102
RTVSPost2010PropOp32
 70
     1
102
RTVSPost2010Prop33
280
     0
102
RTVSPost2010PropOp33
 70
     1
102
RTVSPost2010Prop34
280
     0
102
RTVSPost2010PropOp34
 70
     1
102
RTVSPost2010Prop35
280
     0
102
RTVSPost2010PropOp35
 70
     1
102
RTVSPost2010Prop36
280
     0
102
RTVSPost2010PropOp36
 70
     1
102
RTVSPost2010Prop37
 90
       50
102
RTVSPost2010PropOp37
 70
     1
102
RTVSPost2010Prop38
140
0.0
102
RTVSPost2010PropOp38
 70
     1
102
RTVSPost2010Prop39
140
1.0
102
RTVSPost2010PropOp39
 70
     1
102
RTVSPost2010Prop40
 90
        0
102
RTVSPost2010PropOp40
 70
     1
102
RTVSPost2010Prop41ColorIndex
 90
       18
102
RTVSPost2010Prop41ColorRGB
 90
        0
102
RTVSPost2010PropOp41
 70
     1
102
RTVSPost2010Prop42
 90
       50
102
RTVSPost2010PropOp42
 70
     1
102
RTVSPost2010Prop43
 90
        3
102
RTVSPost2010PropOp43
 70
     1
102
RTVSPost2010Prop44ColorIndex
 90
        5
102
RTVSPost2010Prop44ColorRGB
 90
      255
102
RTVSPost2010PropOp44
 70
     1
102
RTVSPost2010Prop45
280
     0
102
RTVSPost2010PropOp45
 70
     1
102
RTVSPost2010Prop46
 90
       50
102
RTVSPost2010PropOp46
 70
     1
102
RTVSPost2010Prop47
 90
       50
102
RTVSPost2010PropOp47
 70
     1
102
RTVSPost2010Prop48
 90
       50
102
RTVSPost2010PropOp48
 70
     1
102
RTVSPost2010Prop49
280
     0
102
RTVSPost2010PropOp49
 70
     1
102
RTVSPost2010Prop50
 90
       50
102
RTVSPost2010PropOp50
 70
     1
102
RTVSPost2010Prop51ColorIndex
 90
      256
102
RTVSPost2010Prop51ColorRGB
 90
-16777216
102
RTVSPost2010PropOp51
 70
     0
102
RTVSPost2010Prop52
140
1.0
102
RTVSPost2010PropOp52
 70
     0
102
RTVSPost2010Prop53
 90
        2
102
RTVSPost2010PropOp53
 70
     1
102
RTVSPost2010Prop54
  1
strokes_ogs.tif
102
RTVSPost2010PropOp54
 70
     1
102
RTVSPost2010Prop55
280
     0
102
RTVSPost2010PropOp55
 70
     1
102
RTVSPost2010Prop56
140
1.0
102
RTVSPost2010PropOp56
 70
     1
102
RTVSPost2010Prop57
140
1.0
102
RTVSPost2010PropOp57
 70
     1
  0
XRECORD
  5
1015763
102
{ACAD_REACTORS
330
1015762
102
}
330
1015762
100
AcDbXrecord
280
     1
102
RTVSPost2010Prop28
280
     0
102
RTVSPost2010PropOp28
 70
     1
102
RTVSPost2010Prop29
280
     1
102
RTVSPost2010PropOp29
 70
     1
102
RTVSPost2010Prop30
280
     1
102
RTVSPost2010PropOp30
 70
     1
102
RTVSPost2010Prop31
280
     0
102
RTVSPost2010PropOp31
 70
     1
102
RTVSPost2010Prop32
280
     0
102
RTVSPost2010PropOp32
 70
     1
102
RTVSPost2010Prop33
280
     0
102
RTVSPost2010PropOp33
 70
     1
102
RTVSPost2010Prop34
280
     0
102
RTVSPost2010PropOp34
 70
     1
102
RTVSPost2010Prop35
280
     0
102
RTVSPost2010PropOp35
 70
     1
102
RTVSPost2010Prop36
280
     0
102
RTVSPost2010PropOp36
 70
     1
102
RTVSPost2010Prop37
 90
       50
102
RTVSPost2010PropOp37
 70
     1
102
RTVSPost2010Prop38
140
0.0
102
RTVSPost2010PropOp38
 70
     1
102
RTVSPost2010Prop39
140
1.0
102
RTVSPost2010PropOp39
 70
     1
102
RTVSPost2010Prop40
 90
        0
102
RTVSPost2010PropOp40
 70
     1
102
RTVSPost2010Prop41ColorIndex
 90
       18
102
RTVSPost2010Prop41ColorRGB
 90
        0
102
RTVSPost2010PropOp41
 70
     1
102
RTVSPost2010Prop42
 90
       50
102
RTVSPost2010PropOp42
 70
     1
102
RTVSPost2010Prop43
 90
        3
102
RTVSPost2010PropOp43
 70
     1
102
RTVSPost2010Prop44ColorIndex
 90
        5
102
RTVSPost2010Prop44ColorRGB
 90
      255
102
RTVSPost2010PropOp44
 70
     1
102
RTVSPost2010Prop45
280
     0
102
RTVSPost2010PropOp45
 70
     1
102
RTVSPost2010Prop46
 90
       50
102
RTVSPost2010PropOp46
 70
     1
102
RTVSPost2010Prop47
 90
       50
102
RTVSPost2010PropOp47
 70
     1
102
RTVSPost2010Prop48
 90
       50
102
RTVSPost2010PropOp48
 70
     1
102
RTVSPost2010Prop49
280
     0
102
RTVSPost2010PropOp49
 70
     1
102
RTVSPost2010Prop50
 90
       50
102
RTVSPost2010PropOp50
 70
     1
102
RTVSPost2010Prop51ColorIndex
 90
      256
102
RTVSPost2010Prop51ColorRGB
 90
-16777216
102
RTVSPost2010PropOp51
 70
     0
102
RTVSPost2010Prop52
140
1.0
102
RTVSPost2010PropOp52
 70
     0
102
RTVSPost2010Prop53
 90
        2
102
RTVSPost2010PropOp53
 70
     1
102
RTVSPost2010Prop54
  1
strokes_ogs.tif
102
RTVSPost2010PropOp54
 70
     1
102
RTVSPost2010Prop55
280
     0
102
RTVSPost2010PropOp55
 70
     1
102
RTVSPost2010Prop56
140
1.0
102
RTVSPost2010PropOp56
 70
     1
102
RTVSPost2010Prop57
140
1.0
102
RTVSPost2010PropOp57
 70
     1
  0
XRECORD
  5
1015765
102
{ACAD_REACTORS
330
1015764
102
}
330
1015764
100
AcDbXrecord
280
     1
102
RTVSPost2010Prop28
280
     0
102
RTVSPost2010PropOp28
 70
     1
102
RTVSPost2010Prop29
280
     1
102
RTVSPost2010PropOp29
 70
     1
102
RTVSPost2010Prop30
280
     1
102
RTVSPost2010PropOp30
 70
     1
102
RTVSPost2010Prop31
280
     0
102
RTVSPost2010PropOp31
 70
     1
102
RTVSPost2010Prop32
280
     0
102
RTVSPost2010PropOp32
 70
     1
102
RTVSPost2010Prop33
280
     0
102
RTVSPost2010PropOp33
 70
     1
102
RTVSPost2010Prop34
280
     0
102
RTVSPost2010PropOp34
 70
     1
102
RTVSPost2010Prop35
280
     0
102
RTVSPost2010PropOp35
 70
     1
102
RTVSPost2010Prop36
280
     0
102
RTVSPost2010PropOp36
 70
     1
102
RTVSPost2010Prop37
 90
       50
102
RTVSPost2010PropOp37
 70
     1
102
RTVSPost2010Prop38
140
0.0
102
RTVSPost2010PropOp38
 70
     1
102
RTVSPost2010Prop39
140
1.0
102
RTVSPost2010PropOp39
 70
     1
102
RTVSPost2010Prop40
 90
        0
102
RTVSPost2010PropOp40
 70
     1
102
RTVSPost2010Prop41ColorIndex
 90
       18
102
RTVSPost2010Prop41ColorRGB
 90
        0
102
RTVSPost2010PropOp41
 70
     1
102
RTVSPost2010Prop42
 90
       50
102
RTVSPost2010PropOp42
 70
     1
102
RTVSPost2010Prop43
 90
        3
102
RTVSPost2010PropOp43
 70
     1
102
RTVSPost2010Prop44ColorIndex
 90
        5
102
RTVSPost2010Prop44ColorRGB
 90
      255
102
RTVSPost2010PropOp44
 70
     1
102
RTVSPost2010Prop45
280
     0
102
RTVSPost2010PropOp45
 70
     1
102
RTVSPost2010Prop46
 90
       50
102
RTVSPost2010PropOp46
 70
     1
102
RTVSPost2010Prop47
 90
       50
102
RTVSPost2010PropOp47
 70
     1
102
RTVSPost2010Prop48
 90
       50
102
RTVSPost2010PropOp48
 70
     1
102
RTVSPost2010Prop49
280
     0
102
RTVSPost2010PropOp49
 70
     1
102
RTVSPost2010Prop50
 90
       50
102
RTVSPost2010PropOp50
 70
     1
102
RTVSPost2010Prop51ColorIndex
 90
      256
102
RTVSPost2010Prop51ColorRGB
 90
-16777216
102
RTVSPost2010PropOp51
 70
     0
102
RTVSPost2010Prop52
140
1.0
102
RTVSPost2010PropOp52
 70
     0
102
RTVSPost2010Prop53
 90
        2
102
RTVSPost2010PropOp53
 70
     1
102
RTVSPost2010Prop54
  1
strokes_ogs.tif
102
RTVSPost2010PropOp54
 70
     1
102
RTVSPost2010Prop55
280
     0
102
RTVSPost2010PropOp55
 70
     1
102
RTVSPost2010Prop56
140
1.0
102
RTVSPost2010PropOp56
 70
     1
102
RTVSPost2010Prop57
140
1.0
102
RTVSPost2010PropOp57
 70
     1
  0
XRECORD
  5
1015767
102
{ACAD_REACTORS
330
1015766
102
}
330
1015766
100
AcDbXrecord
280
     1
102
RTVSPost2010Prop28
280
     0
102
RTVSPost2010PropOp28
 70
     1
102
RTVSPost2010Prop29
280
     1
102
RTVSPost2010PropOp29
 70
     1
102
RTVSPost2010Prop30
280
     1
102
RTVSPost2010PropOp30
 70
     1
102
RTVSPost2010Prop31
280
     0
102
RTVSPost2010PropOp31
 70
     1
102
RTVSPost2010Prop32
280
     0
102
RTVSPost2010PropOp32
 70
     1
102
RTVSPost2010Prop33
280
     0
102
RTVSPost2010PropOp33
 70
     1
102
RTVSPost2010Prop34
280
     0
102
RTVSPost2010PropOp34
 70
     1
102
RTVSPost2010Prop35
280
     0
102
RTVSPost2010PropOp35
 70
     1
102
RTVSPost2010Prop36
280
     0
102
RTVSPost2010PropOp36
 70
     1
102
RTVSPost2010Prop37
 90
       50
102
RTVSPost2010PropOp37
 70
     1
102
RTVSPost2010Prop38
140
0.0
102
RTVSPost2010PropOp38
 70
     1
102
RTVSPost2010Prop39
140
1.0
102
RTVSPost2010PropOp39
 70
     1
102
RTVSPost2010Prop40
 90
        0
102
RTVSPost2010PropOp40
 70
     1
102
RTVSPost2010Prop41ColorIndex
 90
       18
102
RTVSPost2010Prop41ColorRGB
 90
        0
102
RTVSPost2010PropOp41
 70
     1
102
RTVSPost2010Prop42
 90
       50
102
RTVSPost2010PropOp42
 70
     1
102
RTVSPost2010Prop43
 90
        3
102
RTVSPost2010PropOp43
 70
     1
102
RTVSPost2010Prop44ColorIndex
 90
        5
102
RTVSPost2010Prop44ColorRGB
 90
      255
102
RTVSPost2010PropOp44
 70
     1
102
RTVSPost2010Prop45
280
     0
102
RTVSPost2010PropOp45
 70
     1
102
RTVSPost2010Prop46
 90
       50
102
RTVSPost2010PropOp46
 70
     1
102
RTVSPost2010Prop47
 90
       50
102
RTVSPost2010PropOp47
 70
     1
102
RTVSPost2010Prop48
 90
       50
102
RTVSPost2010PropOp48
 70
     1
102
RTVSPost2010Prop49
280
     0
102
RTVSPost2010PropOp49
 70
     1
102
RTVSPost2010Prop50
 90
       50
102
RTVSPost2010PropOp50
 70
     1
102
RTVSPost2010Prop51ColorIndex
 90
      256
102
RTVSPost2010Prop51ColorRGB
 90
-16777216
102
RTVSPost2010PropOp51
 70
     0
102
RTVSPost2010Prop52
140
1.0
102
RTVSPost2010PropOp52
 70
     0
102
RTVSPost2010Prop53
 90
        2
102
RTVSPost2010PropOp53
 70
     1
102
RTVSPost2010Prop54
  1
strokes_ogs.tif
102
RTVSPost2010PropOp54
 70
     1
102
RTVSPost2010Prop55
280
     0
102
RTVSPost2010PropOp55
 70
     1
102
RTVSPost2010Prop56
140
1.0
102
RTVSPost2010PropOp56
 70
     1
102
RTVSPost2010Prop57
140
1.0
102
RTVSPost2010PropOp57
 70
     1
  0
XRECORD
  5
1015769
102
{ACAD_REACTORS
330
1015768
102
}
330
1015768
100
AcDbXrecord
280
     1
102
RTVSPost2010Prop28
280
     0
102
RTVSPost2010PropOp28
 70
     1
102
RTVSPost2010Prop29
280
     1
102
RTVSPost2010PropOp29
 70
     1
102
RTVSPost2010Prop30
280
     1
102
RTVSPost2010PropOp30
 70
     1
102
RTVSPost2010Prop31
280
     0
102
RTVSPost2010PropOp31
 70
     1
102
RTVSPost2010Prop32
280
     0
102
RTVSPost2010PropOp32
 70
     1
102
RTVSPost2010Prop33
280
     0
102
RTVSPost2010PropOp33
 70
     1
102
RTVSPost2010Prop34
280
     0
102
RTVSPost2010PropOp34
 70
     1
102
RTVSPost2010Prop35
280
     0
102
RTVSPost2010PropOp35
 70
     1
102
RTVSPost2010Prop36
280
     0
102
RTVSPost2010PropOp36
 70
     1
102
RTVSPost2010Prop37
 90
       50
102
RTVSPost2010PropOp37
 70
     1
102
RTVSPost2010Prop38
140
0.0
102
RTVSPost2010PropOp38
 70
     1
102
RTVSPost2010Prop39
140
1.0
102
RTVSPost2010PropOp39
 70
     1
102
RTVSPost2010Prop40
 90
        0
102
RTVSPost2010PropOp40
 70
     1
102
RTVSPost2010Prop41ColorIndex
 90
       18
102
RTVSPost2010Prop41ColorRGB
 90
        0
102
RTVSPost2010PropOp41
 70
     1
102
RTVSPost2010Prop42
 90
       50
102
RTVSPost2010PropOp42
 70
     1
102
RTVSPost2010Prop43
 90
        3
102
RTVSPost2010PropOp43
 70
     1
102
RTVSPost2010Prop44ColorIndex
 90
        5
102
RTVSPost2010Prop44ColorRGB
 90
      255
102
RTVSPost2010PropOp44
 70
     1
102
RTVSPost2010Prop45
280
     0
102
RTVSPost2010PropOp45
 70
     1
102
RTVSPost2010Prop46
 90
       50
102
RTVSPost2010PropOp46
 70
     1
102
RTVSPost2010Prop47
 90
       50
102
RTVSPost2010PropOp47
 70
     1
102
RTVSPost2010Prop48
 90
       50
102
RTVSPost2010PropOp48
 70
     1
102
RTVSPost2010Prop49
280
     0
102
RTVSPost2010PropOp49
 70
     1
102
RTVSPost2010Prop50
 90
       50
102
RTVSPost2010PropOp50
 70
     1
102
RTVSPost2010Prop51ColorIndex
 90
      256
102
RTVSPost2010Prop51ColorRGB
 90
-16777216
102
RTVSPost2010PropOp51
 70
     0
102
RTVSPost2010Prop52
140
1.0
102
RTVSPost2010PropOp52
 70
     0
102
RTVSPost2010Prop53
 90
        2
102
RTVSPost2010PropOp53
 70
     1
102
RTVSPost2010Prop54
  1
strokes_ogs.tif
102
RTVSPost2010PropOp54
 70
     1
102
RTVSPost2010Prop55
280
     0
102
RTVSPost2010PropOp55
 70
     1
102
RTVSPost2010Prop56
140
1.0
102
RTVSPost2010PropOp56
 70
     1
102
RTVSPost2010Prop57
140
1.0
102
RTVSPost2010PropOp57
 70
     1
  0
XRECORD
  5
101576B
102
{ACAD_REACTORS
330
101576A
102
}
330
101576A
100
AcDbXrecord
280
     1
102
RTVSPost2010Prop28
280
     0
102
RTVSPost2010PropOp28
 70
     1
102
RTVSPost2010Prop29
280
     1
102
RTVSPost2010PropOp29
 70
     1
102
RTVSPost2010Prop30
280
     1
102
RTVSPost2010PropOp30
 70
     1
102
RTVSPost2010Prop31
280
     0
102
RTVSPost2010PropOp31
 70
     1
102
RTVSPost2010Prop32
280
     0
102
RTVSPost2010PropOp32
 70
     1
102
RTVSPost2010Prop33
280
     0
102
RTVSPost2010PropOp33
 70
     1
102
RTVSPost2010Prop34
280
     0
102
RTVSPost2010PropOp34
 70
     1
102
RTVSPost2010Prop35
280
     0
102
RTVSPost2010PropOp35
 70
     1
102
RTVSPost2010Prop36
280
     0
102
RTVSPost2010PropOp36
 70
     1
102
RTVSPost2010Prop37
 90
       50
102
RTVSPost2010PropOp37
 70
     1
102
RTVSPost2010Prop38
140
0.0
102
RTVSPost2010PropOp38
 70
     1
102
RTVSPost2010Prop39
140
1.0
102
RTVSPost2010PropOp39
 70
     1
102
RTVSPost2010Prop40
 90
        0
102
RTVSPost2010PropOp40
 70
     1
102
RTVSPost2010Prop41ColorIndex
 90
       18
102
RTVSPost2010Prop41ColorRGB
 90
        0
102
RTVSPost2010PropOp41
 70
     1
102
RTVSPost2010Prop42
 90
       50
102
RTVSPost2010PropOp42
 70
     1
102
RTVSPost2010Prop43
 90
        3
102
RTVSPost2010PropOp43
 70
     1
102
RTVSPost2010Prop44ColorIndex
 90
        5
102
RTVSPost2010Prop44ColorRGB
 90
      255
102
RTVSPost2010PropOp44
 70
     1
102
RTVSPost2010Prop45
280
     0
102
RTVSPost2010PropOp45
 70
     1
102
RTVSPost2010Prop46
 90
       50
102
RTVSPost2010PropOp46
 70
     1
102
RTVSPost2010Prop47
 90
       50
102
RTVSPost2010PropOp47
 70
     1
102
RTVSPost2010Prop48
 90
       50
102
RTVSPost2010PropOp48
 70
     1
102
RTVSPost2010Prop49
280
     0
102
RTVSPost2010PropOp49
 70
     1
102
RTVSPost2010Prop50
 90
       50
102
RTVSPost2010PropOp50
 70
     1
102
RTVSPost2010Prop51ColorIndex
 90
      256
102
RTVSPost2010Prop51ColorRGB
 90
-16777216
102
RTVSPost2010PropOp51
 70
     0
102
RTVSPost2010Prop52
140
1.0
102
RTVSPost2010PropOp52
 70
     0
102
RTVSPost2010Prop53
 90
        2
102
RTVSPost2010PropOp53
 70
     1
102
RTVSPost2010Prop54
  1
strokes_ogs.tif
102
RTVSPost2010PropOp54
 70
     1
102
RTVSPost2010Prop55
280
     0
102
RTVSPost2010PropOp55
 70
     1
102
RTVSPost2010Prop56
140
1.0
102
RTVSPost2010PropOp56
 70
     1
102
RTVSPost2010Prop57
140
1.0
102
RTVSPost2010PropOp57
 70
     1
  0
XRECORD
  5
101576D
102
{ACAD_REACTORS
330
101576C
102
}
330
101576C
100
AcDbXrecord
280
     1
102
RTVSPost2010Prop28
280
     0
102
RTVSPost2010PropOp28
 70
     1
102
RTVSPost2010Prop29
280
     1
102
RTVSPost2010PropOp29
 70
     1
102
RTVSPost2010Prop30
280
     1
102
RTVSPost2010PropOp30
 70
     1
102
RTVSPost2010Prop31
280
     0
102
RTVSPost2010PropOp31
 70
     1
102
RTVSPost2010Prop32
280
     0
102
RTVSPost2010PropOp32
 70
     1
102
RTVSPost2010Prop33
280
     0
102
RTVSPost2010PropOp33
 70
     1
102
RTVSPost2010Prop34
280
     0
102
RTVSPost2010PropOp34
 70
     1
102
RTVSPost2010Prop35
280
     0
102
RTVSPost2010PropOp35
 70
     1
102
RTVSPost2010Prop36
280
     0
102
RTVSPost2010PropOp36
 70
     1
102
RTVSPost2010Prop37
 90
       50
102
RTVSPost2010PropOp37
 70
     1
102
RTVSPost2010Prop38
140
0.0
102
RTVSPost2010PropOp38
 70
     1
102
RTVSPost2010Prop39
140
1.0
102
RTVSPost2010PropOp39
 70
     1
102
RTVSPost2010Prop40
 90
        0
102
RTVSPost2010PropOp40
 70
     1
102
RTVSPost2010Prop41ColorIndex
 90
       18
102
RTVSPost2010Prop41ColorRGB
 90
        0
102
RTVSPost2010PropOp41
 70
     1
102
RTVSPost2010Prop42
 90
       50
102
RTVSPost2010PropOp42
 70
     1
102
RTVSPost2010Prop43
 90
        3
102
RTVSPost2010PropOp43
 70
     1
102
RTVSPost2010Prop44ColorIndex
 90
        5
102
RTVSPost2010Prop44ColorRGB
 90
      255
102
RTVSPost2010PropOp44
 70
     1
102
RTVSPost2010Prop45
280
     0
102
RTVSPost2010PropOp45
 70
     1
102
RTVSPost2010Prop46
 90
       50
102
RTVSPost2010PropOp46
 70
     1
102
RTVSPost2010Prop47
 90
       50
102
RTVSPost2010PropOp47
 70
     1
102
RTVSPost2010Prop48
 90
       50
102
RTVSPost2010PropOp48
 70
     1
102
RTVSPost2010Prop49
280
     0
102
RTVSPost2010PropOp49
 70
     1
102
RTVSPost2010Prop50
 90
       50
102
RTVSPost2010PropOp50
 70
     1
102
RTVSPost2010Prop51ColorIndex
 90
      256
102
RTVSPost2010Prop51ColorRGB
 90
-16777216
102
RTVSPost2010PropOp51
 70
     0
102
RTVSPost2010Prop52
140
1.0
102
RTVSPost2010PropOp52
 70
     0
102
RTVSPost2010Prop53
 90
        2
102
RTVSPost2010PropOp53
 70
     1
102
RTVSPost2010Prop54
  1
strokes_ogs.tif
102
RTVSPost2010PropOp54
 70
     1
102
RTVSPost2010Prop55
280
     0
102
RTVSPost2010PropOp55
 70
     1
102
RTVSPost2010Prop56
140
1.0
102
RTVSPost2010PropOp56
 70
     1
102
RTVSPost2010Prop57
140
1.0
102
RTVSPost2010PropOp57
 70
     1
  0
XRECORD
  5
101576F
102
{ACAD_REACTORS
330
101576E
102
}
330
101576E
100
AcDbXrecord
280
     1
102
RTVSPost2010Prop28
280
     0
102
RTVSPost2010PropOp28
 70
     1
102
RTVSPost2010Prop29
280
     1
102
RTVSPost2010PropOp29
 70
     1
102
RTVSPost2010Prop30
280
     1
102
RTVSPost2010PropOp30
 70
     1
102
RTVSPost2010Prop31
280
     0
102
RTVSPost2010PropOp31
 70
     1
102
RTVSPost2010Prop32
280
     0
102
RTVSPost2010PropOp32
 70
     1
102
RTVSPost2010Prop33
280
     0
102
RTVSPost2010PropOp33
 70
     1
102
RTVSPost2010Prop34
280
     0
102
RTVSPost2010PropOp34
 70
     1
102
RTVSPost2010Prop35
280
     0
102
RTVSPost2010PropOp35
 70
     1
102
RTVSPost2010Prop36
280
     0
102
RTVSPost2010PropOp36
 70
     1
102
RTVSPost2010Prop37
 90
       50
102
RTVSPost2010PropOp37
 70
     1
102
RTVSPost2010Prop38
140
0.0
102
RTVSPost2010PropOp38
 70
     1
102
RTVSPost2010Prop39
140
1.0
102
RTVSPost2010PropOp39
 70
     1
102
RTVSPost2010Prop40
 90
        0
102
RTVSPost2010PropOp40
 70
     1
102
RTVSPost2010Prop41ColorIndex
 90
       18
102
RTVSPost2010Prop41ColorRGB
 90
        0
102
RTVSPost2010PropOp41
 70
     1
102
RTVSPost2010Prop42
 90
       50
102
RTVSPost2010PropOp42
 70
     1
102
RTVSPost2010Prop43
 90
        3
102
RTVSPost2010PropOp43
 70
     1
102
RTVSPost2010Prop44ColorIndex
 90
        5
102
RTVSPost2010Prop44ColorRGB
 90
      255
102
RTVSPost2010PropOp44
 70
     1
102
RTVSPost2010Prop45
280
     0
102
RTVSPost2010PropOp45
 70
     1
102
RTVSPost2010Prop46
 90
       50
102
RTVSPost2010PropOp46
 70
     1
102
RTVSPost2010Prop47
 90
       50
102
RTVSPost2010PropOp47
 70
     1
102
RTVSPost2010Prop48
 90
       50
102
RTVSPost2010PropOp48
 70
     1
102
RTVSPost2010Prop49
280
     0
102
RTVSPost2010PropOp49
 70
     1
102
RTVSPost2010Prop50
 90
       50
102
RTVSPost2010PropOp50
 70
     1
102
RTVSPost2010Prop51ColorIndex
 90
      256
102
RTVSPost2010Prop51ColorRGB
 90
-16777216
102
RTVSPost2010PropOp51
 70
     0
102
RTVSPost2010Prop52
140
1.0
102
RTVSPost2010PropOp52
 70
     0
102
RTVSPost2010Prop53
 90
        2
102
RTVSPost2010PropOp53
 70
     1
102
RTVSPost2010Prop54
  1
strokes_ogs.tif
102
RTVSPost2010PropOp54
 70
     1
102
RTVSPost2010Prop55
280
     0
102
RTVSPost2010PropOp55
 70
     1
102
RTVSPost2010Prop56
140
1.0
102
RTVSPost2010PropOp56
 70
     1
102
RTVSPost2010Prop57
140
1.0
102
RTVSPost2010PropOp57
 70
     1
  0
XRECORD
  5
1015771
102
{ACAD_REACTORS
330
1015770
102
}
330
1015770
100
AcDbXrecord
280
     1
102
RTVSPost2010Prop28
280
     0
102
RTVSPost2010PropOp28
 70
     1
102
RTVSPost2010Prop29
280
     1
102
RTVSPost2010PropOp29
 70
     1
102
RTVSPost2010Prop30
280
     1
102
RTVSPost2010PropOp30
 70
     1
102
RTVSPost2010Prop31
280
     0
102
RTVSPost2010PropOp31
 70
     1
102
RTVSPost2010Prop32
280
     0
102
RTVSPost2010PropOp32
 70
     1
102
RTVSPost2010Prop33
280
     0
102
RTVSPost2010PropOp33
 70
     1
102
RTVSPost2010Prop34
280
     0
102
RTVSPost2010PropOp34
 70
     1
102
RTVSPost2010Prop35
280
     0
102
RTVSPost2010PropOp35
 70
     1
102
RTVSPost2010Prop36
280
     0
102
RTVSPost2010PropOp36
 70
     1
102
RTVSPost2010Prop37
 90
       50
102
RTVSPost2010PropOp37
 70
     1
102
RTVSPost2010Prop38
140
0.0
102
RTVSPost2010PropOp38
 70
     1
102
RTVSPost2010Prop39
140
1.0
102
RTVSPost2010PropOp39
 70
     1
102
RTVSPost2010Prop40
 90
        0
102
RTVSPost2010PropOp40
 70
     1
102
RTVSPost2010Prop41ColorIndex
 90
       18
102
RTVSPost2010Prop41ColorRGB
 90
        0
102
RTVSPost2010PropOp41
 70
     1
102
RTVSPost2010Prop42
 90
       50
102
RTVSPost2010PropOp42
 70
     1
102
RTVSPost2010Prop43
 90
        3
102
RTVSPost2010PropOp43
 70
     1
102
RTVSPost2010Prop44ColorIndex
 90
        5
102
RTVSPost2010Prop44ColorRGB
 90
      255
102
RTVSPost2010PropOp44
 70
     1
102
RTVSPost2010Prop45
280
     0
102
RTVSPost2010PropOp45
 70
     1
102
RTVSPost2010Prop46
 90
       50
102
RTVSPost2010PropOp46
 70
     1
102
RTVSPost2010Prop47
 90
       50
102
RTVSPost2010PropOp47
 70
     1
102
RTVSPost2010Prop48
 90
       50
102
RTVSPost2010PropOp48
 70
     1
102
RTVSPost2010Prop49
280
     0
102
RTVSPost2010PropOp49
 70
     1
102
RTVSPost2010Prop50
 90
       50
102
RTVSPost2010PropOp50
 70
     1
102
RTVSPost2010Prop51ColorIndex
 90
      256
102
RTVSPost2010Prop51ColorRGB
 90
-16777216
102
RTVSPost2010PropOp51
 70
     0
102
RTVSPost2010Prop52
140
1.0
102
RTVSPost2010PropOp52
 70
     0
102
RTVSPost2010Prop53
 90
        2
102
RTVSPost2010PropOp53
 70
     1
102
RTVSPost2010Prop54
  1
strokes_ogs.tif
102
RTVSPost2010PropOp54
 70
     1
102
RTVSPost2010Prop55
280
     0
102
RTVSPost2010PropOp55
 70
     1
102
RTVSPost2010Prop56
140
1.0
102
RTVSPost2010PropOp56
 70
     1
102
RTVSPost2010Prop57
140
1.0
102
RTVSPost2010PropOp57
 70
     1
  0
XRECORD
  5
1015773
102
{ACAD_REACTORS
330
1015772
102
}
330
1015772
100
AcDbXrecord
280
     1
102
RTVSPost2010Prop28
280
     0
102
RTVSPost2010PropOp28
 70
     1
102
RTVSPost2010Prop29
280
     1
102
RTVSPost2010PropOp29
 70
     1
102
RTVSPost2010Prop30
280
     1
102
RTVSPost2010PropOp30
 70
     1
102
RTVSPost2010Prop31
280
     0
102
RTVSPost2010PropOp31
 70
     1
102
RTVSPost2010Prop32
280
     0
102
RTVSPost2010PropOp32
 70
     1
102
RTVSPost2010Prop33
280
     0
102
RTVSPost2010PropOp33
 70
     1
102
RTVSPost2010Prop34
280
     0
102
RTVSPost2010PropOp34
 70
     1
102
RTVSPost2010Prop35
280
     0
102
RTVSPost2010PropOp35
 70
     1
102
RTVSPost2010Prop36
280
     0
102
RTVSPost2010PropOp36
 70
     1
102
RTVSPost2010Prop37
 90
       50
102
RTVSPost2010PropOp37
 70
     1
102
RTVSPost2010Prop38
140
0.0
102
RTVSPost2010PropOp38
 70
     1
102
RTVSPost2010Prop39
140
1.0
102
RTVSPost2010PropOp39
 70
     1
102
RTVSPost2010Prop40
 90
        0
102
RTVSPost2010PropOp40
 70
     1
102
RTVSPost2010Prop41ColorIndex
 90
       18
102
RTVSPost2010Prop41ColorRGB
 90
        0
102
RTVSPost2010PropOp41
 70
     1
102
RTVSPost2010Prop42
 90
       50
102
RTVSPost2010PropOp42
 70
     1
102
RTVSPost2010Prop43
 90
        3
102
RTVSPost2010PropOp43
 70
     1
102
RTVSPost2010Prop44ColorIndex
 90
        5
102
RTVSPost2010Prop44ColorRGB
 90
      255
102
RTVSPost2010PropOp44
 70
     1
102
RTVSPost2010Prop45
280
     0
102
RTVSPost2010PropOp45
 70
     1
102
RTVSPost2010Prop46
 90
       50
102
RTVSPost2010PropOp46
 70
     1
102
RTVSPost2010Prop47
 90
       50
102
RTVSPost2010PropOp47
 70
     1
102
RTVSPost2010Prop48
 90
       50
102
RTVSPost2010PropOp48
 70
     1
102
RTVSPost2010Prop49
280
     0
102
RTVSPost2010PropOp49
 70
     1
102
RTVSPost2010Prop50
 90
       50
102
RTVSPost2010PropOp50
 70
     1
102
RTVSPost2010Prop51ColorIndex
 90
      256
102
RTVSPost2010Prop51ColorRGB
 90
-16777216
102
RTVSPost2010PropOp51
 70
     0
102
RTVSPost2010Prop52
140
1.0
102
RTVSPost2010PropOp52
 70
     0
102
RTVSPost2010Prop53
 90
        2
102
RTVSPost2010PropOp53
 70
     1
102
RTVSPost2010Prop54
  1
strokes_ogs.tif
102
RTVSPost2010PropOp54
 70
     1
102
RTVSPost2010Prop55
280
     0
102
RTVSPost2010PropOp55
 70
     1
102
RTVSPost2010Prop56
140
1.0
102
RTVSPost2010PropOp56
 70
     1
102
RTVSPost2010Prop57
140
1.0
102
RTVSPost2010PropOp57
 70
     1
  0
XRECORD
  5
1015775
102
{ACAD_REACTORS
330
1015774
102
}
330
1015774
100
AcDbXrecord
280
     1
102
RTVSPost2010Prop28
280
     0
102
RTVSPost2010PropOp28
 70
     1
102
RTVSPost2010Prop29
280
     1
102
RTVSPost2010PropOp29
 70
     1
102
RTVSPost2010Prop30
280
     1
102
RTVSPost2010PropOp30
 70
     1
102
RTVSPost2010Prop31
280
     0
102
RTVSPost2010PropOp31
 70
     1
102
RTVSPost2010Prop32
280
     0
102
RTVSPost2010PropOp32
 70
     1
102
RTVSPost2010Prop33
280
     0
102
RTVSPost2010PropOp33
 70
     1
102
RTVSPost2010Prop34
280
     0
102
RTVSPost2010PropOp34
 70
     1
102
RTVSPost2010Prop35
280
     0
102
RTVSPost2010PropOp35
 70
     1
102
RTVSPost2010Prop36
280
     0
102
RTVSPost2010PropOp36
 70
     1
102
RTVSPost2010Prop37
 90
       50
102
RTVSPost2010PropOp37
 70
     1
102
RTVSPost2010Prop38
140
0.0
102
RTVSPost2010PropOp38
 70
     1
102
RTVSPost2010Prop39
140
1.0
102
RTVSPost2010PropOp39
 70
     1
102
RTVSPost2010Prop40
 90
        0
102
RTVSPost2010PropOp40
 70
     1
102
RTVSPost2010Prop41ColorIndex
 90
       18
102
RTVSPost2010Prop41ColorRGB
 90
        0
102
RTVSPost2010PropOp41
 70
     1
102
RTVSPost2010Prop42
 90
       50
102
RTVSPost2010PropOp42
 70
     1
102
RTVSPost2010Prop43
 90
        3
102
RTVSPost2010PropOp43
 70
     1
102
RTVSPost2010Prop44ColorIndex
 90
        5
102
RTVSPost2010Prop44ColorRGB
 90
      255
102
RTVSPost2010PropOp44
 70
     1
102
RTVSPost2010Prop45
280
     0
102
RTVSPost2010PropOp45
 70
     1
102
RTVSPost2010Prop46
 90
       50
102
RTVSPost2010PropOp46
 70
     1
102
RTVSPost2010Prop47
 90
       50
102
RTVSPost2010PropOp47
 70
     1
102
RTVSPost2010Prop48
 90
       50
102
RTVSPost2010PropOp48
 70
     1
102
RTVSPost2010Prop49
280
     0
102
RTVSPost2010PropOp49
 70
     1
102
RTVSPost2010Prop50
 90
       50
102
RTVSPost2010PropOp50
 70
     1
102
RTVSPost2010Prop51ColorIndex
 90
      256
102
RTVSPost2010Prop51ColorRGB
 90
-16777216
102
RTVSPost2010PropOp51
 70
     0
102
RTVSPost2010Prop52
140
1.0
102
RTVSPost2010PropOp52
 70
     0
102
RTVSPost2010Prop53
 90
        2
102
RTVSPost2010PropOp53
 70
     1
102
RTVSPost2010Prop54
  1
strokes_ogs.tif
102
RTVSPost2010PropOp54
 70
     1
102
RTVSPost2010Prop55
280
     0
102
RTVSPost2010PropOp55
 70
     1
102
RTVSPost2010Prop56
140
1.0
102
RTVSPost2010PropOp56
 70
     1
102
RTVSPost2010Prop57
140
1.0
102
RTVSPost2010PropOp57
 70
     1
  0
XRECORD
  5
1015777
102
{ACAD_REACTORS
330
1015776
102
}
330
1015776
100
AcDbXrecord
280
     1
102
RTVSPost2010Prop28
280
     0
102
RTVSPost2010PropOp28
 70
     1
102
RTVSPost2010Prop29
280
     1
102
RTVSPost2010PropOp29
 70
     1
102
RTVSPost2010Prop30
280
     1
102
RTVSPost2010PropOp30
 70
     1
102
RTVSPost2010Prop31
280
     0
102
RTVSPost2010PropOp31
 70
     1
102
RTVSPost2010Prop32
280
     0
102
RTVSPost2010PropOp32
 70
     1
102
RTVSPost2010Prop33
280
     0
102
RTVSPost2010PropOp33
 70
     1
102
RTVSPost2010Prop34
280
     0
102
RTVSPost2010PropOp34
 70
     1
102
RTVSPost2010Prop35
280
     0
102
RTVSPost2010PropOp35
 70
     1
102
RTVSPost2010Prop36
280
     0
102
RTVSPost2010PropOp36
 70
     1
102
RTVSPost2010Prop37
 90
       50
102
RTVSPost2010PropOp37
 70
     1
102
RTVSPost2010Prop38
140
0.0
102
RTVSPost2010PropOp38
 70
     1
102
RTVSPost2010Prop39
140
1.0
102
RTVSPost2010PropOp39
 70
     1
102
RTVSPost2010Prop40
 90
        0
102
RTVSPost2010PropOp40
 70
     1
102
RTVSPost2010Prop41ColorIndex
 90
       18
102
RTVSPost2010Prop41ColorRGB
 90
        0
102
RTVSPost2010PropOp41
 70
     1
102
RTVSPost2010Prop42
 90
       50
102
RTVSPost2010PropOp42
 70
     1
102
RTVSPost2010Prop43
 90
        3
102
RTVSPost2010PropOp43
 70
     1
102
RTVSPost2010Prop44ColorIndex
 90
        5
102
RTVSPost2010Prop44ColorRGB
 90
      255
102
RTVSPost2010PropOp44
 70
     1
102
RTVSPost2010Prop45
280
     0
102
RTVSPost2010PropOp45
 70
     1
102
RTVSPost2010Prop46
 90
       50
102
RTVSPost2010PropOp46
 70
     1
102
RTVSPost2010Prop47
 90
       50
102
RTVSPost2010PropOp47
 70
     1
102
RTVSPost2010Prop48
 90
       50
102
RTVSPost2010PropOp48
 70
     1
102
RTVSPost2010Prop49
280
     0
102
RTVSPost2010PropOp49
 70
     1
102
RTVSPost2010Prop50
 90
       50
102
RTVSPost2010PropOp50
 70
     1
102
RTVSPost2010Prop51ColorIndex
 90
      256
102
RTVSPost2010Prop51ColorRGB
 90
-16777216
102
RTVSPost2010PropOp51
 70
     0
102
RTVSPost2010Prop52
140
1.0
102
RTVSPost2010PropOp52
 70
     0
102
RTVSPost2010Prop53
 90
        2
102
RTVSPost2010PropOp53
 70
     1
102
RTVSPost2010Prop54
  1
strokes_ogs.tif
102
RTVSPost2010PropOp54
 70
     1
102
RTVSPost2010Prop55
280
     0
102
RTVSPost2010PropOp55
 70
     1
102
RTVSPost2010Prop56
140
1.0
102
RTVSPost2010PropOp56
 70
     1
102
RTVSPost2010Prop57
140
1.0
102
RTVSPost2010PropOp57
 70
     1
  0
XRECORD
  5
1015779
102
{ACAD_REACTORS
330
1015778
102
}
330
1015778
100
AcDbXrecord
280
     1
102
RTVSPost2010Prop28
280
     0
102
RTVSPost2010PropOp28
 70
     1
102
RTVSPost2010Prop29
280
     1
102
RTVSPost2010PropOp29
 70
     1
102
RTVSPost2010Prop30
280
     1
102
RTVSPost2010PropOp30
 70
     1
102
RTVSPost2010Prop31
280
     0
102
RTVSPost2010PropOp31
 70
     1
102
RTVSPost2010Prop32
280
     0
102
RTVSPost2010PropOp32
 70
     1
102
RTVSPost2010Prop33
280
     0
102
RTVSPost2010PropOp33
 70
     1
102
RTVSPost2010Prop34
280
     0
102
RTVSPost2010PropOp34
 70
     1
102
RTVSPost2010Prop35
280
     0
102
RTVSPost2010PropOp35
 70
     1
102
RTVSPost2010Prop36
280
     0
102
RTVSPost2010PropOp36
 70
     1
102
RTVSPost2010Prop37
 90
       50
102
RTVSPost2010PropOp37
 70
     1
102
RTVSPost2010Prop38
140
0.0
102
RTVSPost2010PropOp38
 70
     1
102
RTVSPost2010Prop39
140
1.0
102
RTVSPost2010PropOp39
 70
     1
102
RTVSPost2010Prop40
 90
        0
102
RTVSPost2010PropOp40
 70
     1
102
RTVSPost2010Prop41ColorIndex
 90
       18
102
RTVSPost2010Prop41ColorRGB
 90
        0
102
RTVSPost2010PropOp41
 70
     1
102
RTVSPost2010Prop42
 90
       50
102
RTVSPost2010PropOp42
 70
     1
102
RTVSPost2010Prop43
 90
        3
102
RTVSPost2010PropOp43
 70
     1
102
RTVSPost2010Prop44ColorIndex
 90
        5
102
RTVSPost2010Prop44ColorRGB
 90
      255
102
RTVSPost2010PropOp44
 70
     1
102
RTVSPost2010Prop45
280
     0
102
RTVSPost2010PropOp45
 70
     1
102
RTVSPost2010Prop46
 90
       50
102
RTVSPost2010PropOp46
 70
     1
102
RTVSPost2010Prop47
 90
       50
102
RTVSPost2010PropOp47
 70
     1
102
RTVSPost2010Prop48
 90
       50
102
RTVSPost2010PropOp48
 70
     1
102
RTVSPost2010Prop49
280
     0
102
RTVSPost2010PropOp49
 70
     1
102
RTVSPost2010Prop50
 90
       50
102
RTVSPost2010PropOp50
 70
     1
102
RTVSPost2010Prop51ColorIndex
 90
      256
102
RTVSPost2010Prop51ColorRGB
 90
-16777216
102
RTVSPost2010PropOp51
 70
     0
102
RTVSPost2010Prop52
140
1.0
102
RTVSPost2010PropOp52
 70
     0
102
RTVSPost2010Prop53
 90
        2
102
RTVSPost2010PropOp53
 70
     1
102
RTVSPost2010Prop54
  1
strokes_ogs.tif
102
RTVSPost2010PropOp54
 70
     1
102
RTVSPost2010Prop55
280
     0
102
RTVSPost2010PropOp55
 70
     1
102
RTVSPost2010Prop56
140
1.0
102
RTVSPost2010PropOp56
 70
     1
102
RTVSPost2010Prop57
140
1.0
102
RTVSPost2010PropOp57
 70
     1
  0
XRECORD
  5
101577B
102
{ACAD_REACTORS
330
101577A
102
}
330
101577A
100
AcDbXrecord
280
     1
102
RTVSPost2010Prop28
280
     0
102
RTVSPost2010PropOp28
 70
     1
102
RTVSPost2010Prop29
280
     1
102
RTVSPost2010PropOp29
 70
     1
102
RTVSPost2010Prop30
280
     1
102
RTVSPost2010PropOp30
 70
     1
102
RTVSPost2010Prop31
280
     0
102
RTVSPost2010PropOp31
 70
     1
102
RTVSPost2010Prop32
280
     0
102
RTVSPost2010PropOp32
 70
     1
102
RTVSPost2010Prop33
280
     0
102
RTVSPost2010PropOp33
 70
     1
102
RTVSPost2010Prop34
280
     0
102
RTVSPost2010PropOp34
 70
     1
102
RTVSPost2010Prop35
280
     0
102
RTVSPost2010PropOp35
 70
     1
102
RTVSPost2010Prop36
280
     0
102
RTVSPost2010PropOp36
 70
     1
102
RTVSPost2010Prop37
 90
       50
102
RTVSPost2010PropOp37
 70
     1
102
RTVSPost2010Prop38
140
0.0
102
RTVSPost2010PropOp38
 70
     1
102
RTVSPost2010Prop39
140
1.0
102
RTVSPost2010PropOp39
 70
     1
102
RTVSPost2010Prop40
 90
        0
102
RTVSPost2010PropOp40
 70
     1
102
RTVSPost2010Prop41ColorIndex
 90
       18
102
RTVSPost2010Prop41ColorRGB
 90
        0
102
RTVSPost2010PropOp41
 70
     1
102
RTVSPost2010Prop42
 90
       50
102
RTVSPost2010PropOp42
 70
     1
102
RTVSPost2010Prop43
 90
        3
102
RTVSPost2010PropOp43
 70
     1
102
RTVSPost2010Prop44ColorIndex
 90
        5
102
RTVSPost2010Prop44ColorRGB
 90
      255
102
RTVSPost2010PropOp44
 70
     1
102
RTVSPost2010Prop45
280
     0
102
RTVSPost2010PropOp45
 70
     1
102
RTVSPost2010Prop46
 90
       50
102
RTVSPost2010PropOp46
 70
     1
102
RTVSPost2010Prop47
 90
       50
102
RTVSPost2010PropOp47
 70
     1
102
RTVSPost2010Prop48
 90
       50
102
RTVSPost2010PropOp48
 70
     1
102
RTVSPost2010Prop49
280
     0
102
RTVSPost2010PropOp49
 70
     1
102
RTVSPost2010Prop50
 90
       50
102
RTVSPost2010PropOp50
 70
     1
102
RTVSPost2010Prop51ColorIndex
 90
      256
102
RTVSPost2010Prop51ColorRGB
 90
-16777216
102
RTVSPost2010PropOp51
 70
     0
102
RTVSPost2010Prop52
140
1.0
102
RTVSPost2010PropOp52
 70
     0
102
RTVSPost2010Prop53
 90
        2
102
RTVSPost2010PropOp53
 70
     1
102
RTVSPost2010Prop54
  1
strokes_ogs.tif
102
RTVSPost2010PropOp54
 70
     1
102
RTVSPost2010Prop55
280
     0
102
RTVSPost2010PropOp55
 70
     1
102
RTVSPost2010Prop56
140
1.0
102
RTVSPost2010PropOp56
 70
     1
102
RTVSPost2010Prop57
140
1.0
102
RTVSPost2010PropOp57
 70
     1
  0
XRECORD
  5
101577D
102
{ACAD_REACTORS
330
101577C
102
}
330
101577C
100
AcDbXrecord
280
     1
102
RTVSPost2010Prop28
280
     0
102
RTVSPost2010PropOp28
 70
     1
102
RTVSPost2010Prop29
280
     1
102
RTVSPost2010PropOp29
 70
     1
102
RTVSPost2010Prop30
280
     1
102
RTVSPost2010PropOp30
 70
     1
102
RTVSPost2010Prop31
280
     0
102
RTVSPost2010PropOp31
 70
     1
102
RTVSPost2010Prop32
280
     0
102
RTVSPost2010PropOp32
 70
     1
102
RTVSPost2010Prop33
280
     0
102
RTVSPost2010PropOp33
 70
     1
102
RTVSPost2010Prop34
280
     0
102
RTVSPost2010PropOp34
 70
     1
102
RTVSPost2010Prop35
280
     0
102
RTVSPost2010PropOp35
 70
     1
102
RTVSPost2010Prop36
280
     0
102
RTVSPost2010PropOp36
 70
     1
102
RTVSPost2010Prop37
 90
       50
102
RTVSPost2010PropOp37
 70
     1
102
RTVSPost2010Prop38
140
0.0
102
RTVSPost2010PropOp38
 70
     1
102
RTVSPost2010Prop39
140
1.0
102
RTVSPost2010PropOp39
 70
     1
102
RTVSPost2010Prop40
 90
        0
102
RTVSPost2010PropOp40
 70
     1
102
RTVSPost2010Prop41ColorIndex
 90
       18
102
RTVSPost2010Prop41ColorRGB
 90
        0
102
RTVSPost2010PropOp41
 70
     1
102
RTVSPost2010Prop42
 90
       50
102
RTVSPost2010PropOp42
 70
     1
102
RTVSPost2010Prop43
 90
        3
102
RTVSPost2010PropOp43
 70
     1
102
RTVSPost2010Prop44ColorIndex
 90
        5
102
RTVSPost2010Prop44ColorRGB
 90
      255
102
RTVSPost2010PropOp44
 70
     1
102
RTVSPost2010Prop45
280
     0
102
RTVSPost2010PropOp45
 70
     1
102
RTVSPost2010Prop46
 90
       50
102
RTVSPost2010PropOp46
 70
     1
102
RTVSPost2010Prop47
 90
       50
102
RTVSPost2010PropOp47
 70
     1
102
RTVSPost2010Prop48
 90
       50
102
RTVSPost2010PropOp48
 70
     1
102
RTVSPost2010Prop49
280
     0
102
RTVSPost2010PropOp49
 70
     1
102
RTVSPost2010Prop50
 90
       50
102
RTVSPost2010PropOp50
 70
     1
102
RTVSPost2010Prop51ColorIndex
 90
      256
102
RTVSPost2010Prop51ColorRGB
 90
-16777216
102
RTVSPost2010PropOp51
 70
     0
102
RTVSPost2010Prop52
140
1.0
102
RTVSPost2010PropOp52
 70
     0
102
RTVSPost2010Prop53
 90
        2
102
RTVSPost2010PropOp53
 70
     1
102
RTVSPost2010Prop54
  1
strokes_ogs.tif
102
RTVSPost2010PropOp54
 70
     1
102
RTVSPost2010Prop55
280
     0
102
RTVSPost2010PropOp55
 70
     1
102
RTVSPost2010Prop56
140
1.0
102
RTVSPost2010PropOp56
 70
     1
102
RTVSPost2010Prop57
140
1.0
102
RTVSPost2010PropOp57
 70
     1
  0
XRECORD
  5
101577F
102
{ACAD_REACTORS
330
101577E
102
}
330
101577E
100
AcDbXrecord
280
     1
102
RTVSPost2010Prop28
280
     0
102
RTVSPost2010PropOp28
 70
     1
102
RTVSPost2010Prop29
280
     1
102
RTVSPost2010PropOp29
 70
     1
102
RTVSPost2010Prop30
280
     1
102
RTVSPost2010PropOp30
 70
     1
102
RTVSPost2010Prop31
280
     0
102
RTVSPost2010PropOp31
 70
     1
102
RTVSPost2010Prop32
280
     0
102
RTVSPost2010PropOp32
 70
     1
102
RTVSPost2010Prop33
280
     0
102
RTVSPost2010PropOp33
 70
     1
102
RTVSPost2010Prop34
280
     0
102
RTVSPost2010PropOp34
 70
     1
102
RTVSPost2010Prop35
280
     0
102
RTVSPost2010PropOp35
 70
     1
102
RTVSPost2010Prop36
280
     0
102
RTVSPost2010PropOp36
 70
     1
102
RTVSPost2010Prop37
 90
       50
102
RTVSPost2010PropOp37
 70
     1
102
RTVSPost2010Prop38
140
0.0
102
RTVSPost2010PropOp38
 70
     1
102
RTVSPost2010Prop39
140
1.0
102
RTVSPost2010PropOp39
 70
     1
102
RTVSPost2010Prop40
 90
        0
102
RTVSPost2010PropOp40
 70
     1
102
RTVSPost2010Prop41ColorIndex
 90
       18
102
RTVSPost2010Prop41ColorRGB
 90
        0
102
RTVSPost2010PropOp41
 70
     1
102
RTVSPost2010Prop42
 90
       50
102
RTVSPost2010PropOp42
 70
     1
102
RTVSPost2010Prop43
 90
        3
102
RTVSPost2010PropOp43
 70
     1
102
RTVSPost2010Prop44ColorIndex
 90
        5
102
RTVSPost2010Prop44ColorRGB
 90
      255
102
RTVSPost2010PropOp44
 70
     1
102
RTVSPost2010Prop45
280
     0
102
RTVSPost2010PropOp45
 70
     1
102
RTVSPost2010Prop46
 90
       50
102
RTVSPost2010PropOp46
 70
     1
102
RTVSPost2010Prop47
 90
       50
102
RTVSPost2010PropOp47
 70
     1
102
RTVSPost2010Prop48
 90
       50
102
RTVSPost2010PropOp48
 70
     1
102
RTVSPost2010Prop49
280
     0
102
RTVSPost2010PropOp49
 70
     1
102
RTVSPost2010Prop50
 90
       50
102
RTVSPost2010PropOp50
 70
     1
102
RTVSPost2010Prop51ColorIndex
 90
      256
102
RTVSPost2010Prop51ColorRGB
 90
-16777216
102
RTVSPost2010PropOp51
 70
     0
102
RTVSPost2010Prop52
140
1.0
102
RTVSPost2010PropOp52
 70
     0
102
RTVSPost2010Prop53
 90
        2
102
RTVSPost2010PropOp53
 70
     1
102
RTVSPost2010Prop54
  1
strokes_ogs.tif
102
RTVSPost2010PropOp54
 70
     1
102
RTVSPost2010Prop55
280
     0
102
RTVSPost2010PropOp55
 70
     1
102
RTVSPost2010Prop56
140
1.0
102
RTVSPost2010PropOp56
 70
     1
102
RTVSPost2010Prop57
140
1.0
102
RTVSPost2010PropOp57
 70
     1
  0
ENDSEC
  0
EOF
